  0
SECTION
  2
HEADER
  9
$ACADVER
  1
AC1032
  9
$ACADMAINTVER
 90
      197
  9
$DWGCODEPAGE
  3
ANSI_1252
  9
$REQUIREDVERSIONS
160
                 0
  9
$INSBASE
 10
0.0
 20
0.0
 30
0.0
  9
$EXTMIN
 10
1.000000000000000E+20
 20
1.000000000000000E+20
 30
1.000000000000000E+20
  9
$EXTMAX
 10
-1.000000000000000E+20
 20
-1.000000000000000E+20
 30
-1.000000000000000E+20
  9
$LIMMIN
 10
0.0
 20
0.0
  9
$LIMMAX
 10
12.0
 20
9.0
  9
$ORTHOMODE
 70
     0
  9
$REGENMODE
 70
     1
  9
$FILLMODE
 70
     1
  9
$QTEXTMODE
 70
     0
  9
$MIRRTEXT
 70
     0
  9
$LTSCALE
 40
1.0
  9
$ATTMODE
 70
     1
  9
$TEXTSIZE
 40
0.2
  9
$TRACEWID
 40
0.05
  9
$TEXTSTYLE
  7
Standard
  9
$CLAYER
  8
0
  9
$CELTYPE
  6
ByLayer
  9
$CECOLOR
 62
   256
  9
$CELTSCALE
 40
1.0
  9
$DISPSILH
 70
     0
  9
$DIMSCALE
 40
1.0
  9
$DIMASZ
 40
0.18
  9
$DIMEXO
 40
0.0625
  9
$DIMDLI
 40
0.38
  9
$DIMRND
 40
0.0
  9
$DIMDLE
 40
0.0
  9
$DIMEXE
 40
0.18
  9
$DIMTP
 40
0.0
  9
$DIMTM
 40
0.0
  9
$DIMTXT
 40
0.18
  9
$DIMCEN
 40
0.09
  9
$DIMTSZ
 40
0.0
  9
$DIMTOL
 70
     0
  9
$DIMLIM
 70
     0
  9
$DIMTIH
 70
     1
  9
$DIMTOH
 70
     1
  9
$DIMSE1
 70
     0
  9
$DIMSE2
 70
     0
  9
$DIMTAD
 70
     0
  9
$DIMZIN
 70
     0
  9
$DIMBLK
  1

  9
$DIMASO
 70
     1
  9
$DIMSHO
 70
     1
  9
$DIMPOST
  1

  9
$DIMAPOST
  1

  9
$DIMALT
 70
     0
  9
$DIMALTD
 70
     2
  9
$DIMALTF
 40
25.4
  9
$DIMLFAC
 40
1.0
  9
$DIMTOFL
 70
     0
  9
$DIMTVP
 40
0.0
  9
$DIMTIX
 70
     0
  9
$DIMSOXD
 70
     0
  9
$DIMSAH
 70
     0
  9
$DIMBLK1
  1

  9
$DIMBLK2
  1

  9
$DIMSTYLE
  2
Standard
  9
$DIMCLRD
 70
     0
  9
$DIMCLRE
 70
     0
  9
$DIMCLRT
 70
     0
  9
$DIMTFAC
 40
1.0
  9
$DIMGAP
 40
0.09
  9
$DIMJUST
 70
     0
  9
$DIMSD1
 70
     0
  9
$DIMSD2
 70
     0
  9
$DIMTOLJ
 70
     1
  9
$DIMTZIN
 70
     0
  9
$DIMALTZ
 70
     0
  9
$DIMALTTZ
 70
     0
  9
$DIMUPT
 70
     0
  9
$DIMDEC
 70
     4
  9
$DIMTDEC
 70
     4
  9
$DIMALTU
 70
     2
  9
$DIMALTTD
 70
     2
  9
$DIMTXSTY
  7
Standard
  9
$DIMAUNIT
 70
     0
  9
$DIMADEC
 70
     0
  9
$DIMALTRND
 40
0.0
  9
$DIMAZIN
 70
     0
  9
$DIMDSEP
 70
    46
  9
$DIMATFIT
 70
     3
  9
$DIMFRAC
 70
     0
  9
$DIMLDRBLK
  1

  9
$DIMLUNIT
 70
     2
  9
$DIMLWD
 70
    -2
  9
$DIMLWE
 70
    -2
  9
$DIMTMOVE
 70
     0
  9
$DIMFXL
 40
1.0
  9
$DIMFXLON
 70
     0
  9
$DIMJOGANG
 40
0.7853981633974483
  9
$DIMTFILL
 70
     0
  9
$DIMTFILLCLR
 70
     0
  9
$DIMARCSYM
 70
     0
  9
$DIMLTYPE
  6

  9
$DIMLTEX1
  6

  9
$DIMLTEX2
  6

  9
$DIMTXTDIRECTION
 70
     0
  9
$LUNITS
 70
     2
  9
$LUPREC
 70
     4
  9
$SKETCHINC
 40
0.1
  9
$FILLETRAD
 40
0.0
  9
$AUNITS
 70
     0
  9
$AUPREC
 70
     0
  9
$MENU
  1
.
  9
$ELEVATION
 40
0.0
  9
$PELEVATION
 40
0.0
  9
$THICKNESS
 40
0.0
  9
$LIMCHECK
 70
     0
  9
$CHAMFERA
 40
0.0
  9
$CHAMFERB
 40
0.0
  9
$CHAMFERC
 40
0.0
  9
$CHAMFERD
 40
0.0
  9
$SKPOLY
 70
     0
  9
$TDCREATE
 40
2459636.411527778
  9
$TDUCREATE
 40
2459636.411527778
  9
$TDUPDATE
 40
2459636.411527778
  9
$TDUUPDATE
 40
2459636.411527778
  9
$TDINDWG
 40
0.0000000000
  9
$TDUSRTIMER
 40
0.0000000000
  9
$USRTIMER
 70
     1
  9
$ANGBASE
 50
0.0
  9
$ANGDIR
 70
     0
  9
$PDMODE
 70
     0
  9
$PDSIZE
 40
0.0
  9
$PLINEWID
 40
0.0
  9
$SPLFRAME
 70
     0
  9
$SPLINETYPE
 70
     6
  9
$SPLINESEGS
 70
     8
  9
$HANDSEED
  5
A5
  9
$SURFTAB1
 70
     6
  9
$SURFTAB2
 70
     6
  9
$SURFTYPE
 70
     6
  9
$SURFU
 70
     6
  9
$SURFV
 70
     6
  9
$UCSBASE
  2

  9
$UCSNAME
  2

  9
$UCSORG
 10
0.0
 20
0.0
 30
0.0
  9
$UCSXDIR
 10
1.0
 20
0.0
 30
0.0
  9
$UCSYDIR
 10
0.0
 20
1.0
 30
0.0
  9
$UCSORTHOREF
  2

  9
$UCSORTHOVIEW
 70
     0
  9
$UCSORGTOP
 10
0.0
 20
0.0
 30
0.0
  9
$UCSORGBOTTOM
 10
0.0
 20
0.0
 30
0.0
  9
$UCSORGLEFT
 10
0.0
 20
0.0
 30
0.0
  9
$UCSORGRIGHT
 10
0.0
 20
0.0
 30
0.0
  9
$UCSORGFRONT
 10
0.0
 20
0.0
 30
0.0
  9
$UCSORGBACK
 10
0.0
 20
0.0
 30
0.0
  9
$PUCSBASE
  2

  9
$PUCSNAME
  2

  9
$PUCSORG
 10
0.0
 20
0.0
 30
0.0
  9
$PUCSXDIR
 10
1.0
 20
0.0
 30
0.0
  9
$PUCSYDIR
 10
0.0
 20
1.0
 30
0.0
  9
$PUCSORTHOREF
  2

  9
$PUCSORTHOVIEW
 70
     0
  9
$PUCSORGTOP
 10
0.0
 20
0.0
 30
0.0
  9
$PUCSORGBOTTOM
 10
0.0
 20
0.0
 30
0.0
  9
$PUCSORGLEFT
 10
0.0
 20
0.0
 30
0.0
  9
$PUCSORGRIGHT
 10
0.0
 20
0.0
 30
0.0
  9
$PUCSORGFRONT
 10
0.0
 20
0.0
 30
0.0
  9
$PUCSORGBACK
 10
0.0
 20
0.0
 30
0.0
  9
$USERI1
 70
     0
  9
$USERI2
 70
     0
  9
$USERI3
 70
     0
  9
$USERI4
 70
     0
  9
$USERI5
 70
     0
  9
$USERR1
 40
0.0
  9
$USERR2
 40
0.0
  9
$USERR3
 40
0.0
  9
$USERR4
 40
0.0
  9
$USERR5
 40
0.0
  9
$WORLDVIEW
 70
     1
  9
$SHADEDGE
 70
     3
  9
$SHADEDIF
 70
    70
  9
$TILEMODE
 70
     1
  9
$MAXACTVP
 70
    64
  9
$PINSBASE
 10
0.0
 20
0.0
 30
0.0
  9
$PLIMCHECK
 70
     0
  9
$PEXTMIN
 10
1.000000000000000E+20
 20
1.000000000000000E+20
 30
1.000000000000000E+20
  9
$PEXTMAX
 10
-1.000000000000000E+20
 20
-1.000000000000000E+20
 30
-1.000000000000000E+20
  9
$PLIMMIN
 10
0.0
 20
0.0
  9
$PLIMMAX
 10
12.0
 20
9.0
  9
$UNITMODE
 70
     0
  9
$VISRETAIN
 70
     1
  9
$PLINEGEN
 70
     0
  9
$PSLTSCALE
 70
     1
  9
$TREEDEPTH
 70
  3020
  9
$CMLSTYLE
  2
Standard
  9
$CMLJUST
 70
     0
  9
$CMLSCALE
 40
1.0
  9
$PROXYGRAPHICS
 70
     1
  9
$MEASUREMENT
 70
     0
  9
$CELWEIGHT
370
    -1
  9
$ENDCAPS
280
     0
  9
$JOINSTYLE
280
     0
  9
$LWDISPLAY
290
     1
  9
$INSUNITS
 70
     4
  9
$HYPERLINKBASE
  1

  9
$STYLESHEET
  1

  9
$XEDIT
290
     1
  9
$CEPSNTYPE
380
     0
  9
$PSTYLEMODE
290
     1
  9
$FINGERPRINTGUID
  2
{21B08468-C7B5-224E-964F-8AB653666F63}
  9
$VERSIONGUID
  2
{88D0B005-A97C-2F4D-8A10-2735A4838276}
  9
$EXTNAMES
290
     1
  9
$PSVPSCALE
 40
0.0
  9
$OLESTARTUP
290
     0
  9
$SORTENTS
280
   127
  9
$INDEXCTL
280
     0
  9
$HIDETEXT
280
     1
  9
$XCLIPFRAME
280
     2
  9
$HALOGAP
280
     0
  9
$OBSCOLOR
 70
   257
  9
$OBSLTYPE
280
     0
  9
$INTERSECTIONDISPLAY
280
     0
  9
$INTERSECTIONCOLOR
 70
   257
  9
$DIMASSOC
280
     2
  9
$PROJECTNAME
  1

  9
$CAMERADISPLAY
290
     0
  9
$LENSLENGTH
 40
50.0
  9
$CAMERAHEIGHT
 40
0.0
  9
$STEPSPERSEC
 40
2.0
  9
$STEPSIZE
 40
6.0
  9
$3DDWFPREC
 40
2.0
  9
$PSOLWIDTH
 40
0.25
  9
$PSOLHEIGHT
 40
4.0
  9
$LOFTANG1
 40
1.570796326794896
  9
$LOFTANG2
 40
1.570796326794896
  9
$LOFTMAG1
 40
0.0
  9
$LOFTMAG2
 40
0.0
  9
$LOFTPARAM
 70
     7
  9
$LOFTNORMALS
280
     1
  9
$LATITUDE
 40
37.795
  9
$LONGITUDE
 40
-122.394
  9
$NORTHDIRECTION
 40
0.0
  9
$TIMEZONE
 70
 -8000
  9
$LIGHTGLYPHDISPLAY
280
     1
  9
$TILEMODELIGHTSYNCH
280
     1
  9
$CMATERIAL
347
11
  9
$SOLIDHIST
280
     0
  9
$SHOWHIST
280
     1
  9
$DWFFRAME
280
     2
  9
$DGNFRAME
280
     0
  9
$REALWORLDSCALE
290
     1
  9
$INTERFERECOLOR
 62
     1
  9
$INTERFEREOBJVS
345
33
  9
$INTERFEREVPVS
346
30
  9
$CSHADOW
280
     0
  9
$SHADOWPLANELOCATION
 40
0.0
  0
ENDSEC
  0
SECTION
  2
CLASSES
  0
CLASS
  1
ACDBDICTIONARYWDFLT
  2
AcDbDictionaryWithDefault
  3
ObjectDBX Classes
 90
        0
 91
        1
280
     0
281
     0
  0
CLASS
  1
MATERIAL
  2
AcDbMaterial
  3
ObjectDBX Classes
 90
     1153
 91
        3
280
     0
281
     0
  0
CLASS
  1
VISUALSTYLE
  2
AcDbVisualStyle
  3
ObjectDBX Classes
 90
     4095
 91
       24
280
     0
281
     0
  0
CLASS
  1
SCALE
  2
AcDbScale
  3
ObjectDBX Classes
 90
     1153
 91
       17
280
     0
281
     0
  0
CLASS
  1
TABLESTYLE
  2
AcDbTableStyle
  3
ObjectDBX Classes
 90
     4095
 91
        1
280
     0
281
     0
  0
CLASS
  1
MLEADERSTYLE
  2
AcDbMLeaderStyle
  3
ACDB_MLEADERSTYLE_CLASS
 90
     4095
 91
        1
280
     0
281
     0
  0
CLASS
  1
ACDBSECTIONVIEWSTYLE
  2
AcDbSectionViewStyle
  3
ObjectDBX Classes
 90
     1025
 91
        1
280
     0
281
     0
  0
CLASS
  1
ACDBDETAILVIEWSTYLE
  2
AcDbDetailViewStyle
  3
ObjectDBX Classes
 90
     1025
 91
        1
280
     0
281
     0
  0
CLASS
  1
DICTIONARYVAR
  2
AcDbDictionaryVar
  3
ObjectDBX Classes
 90
        0
 91
        5
280
     0
281
     0
  0
CLASS
  1
CELLSTYLEMAP
  2
AcDbCellStyleMap
  3
ObjectDBX Classes
 90
     1152
 91
        1
280
     0
281
     0
  0
ENDSEC
  0
SECTION
  2
TABLES
  0
TABLE
  2
VPORT
  5
8
330
0
100
AcDbSymbolTable
 70
     1
  0
VPORT
  5
57
330
8
100
AcDbSymbolTableRecord
100
AcDbViewportTableRecord
  2
*Active
 70
     0
 10
0.0
 20
0.0
 11
1.0
 21
1.0
 12
0.0
 22
0.0
 13
0.0
 23
0.0
 14
1.0
 24
1.0
 15
0.0
 25
0.0
 16
0.0
 26
0.0
 36
1.0
 17
105.8026569783801
 27
148.4199577111137
 37
0.0
 40
407.9999998979999
 41
1.0
 42
50.0
 43
0.0
 44
0.0
 50
0.0
 51
0.0
 71
     0
 72
   100
 73
     1
 74
     1
 75
     0
 76
     0
 77
     0
 78
     0
281
     0
 65
     1
110
0.0
120
0.0
130
0.0
111
1.0
121
0.0
131
0.0
112
0.0
122
1.0
132
0.0
 79
     0
146
0.0
 60
     3
 61
     5
292
     1
282
     1
141
0.0
142
0.0
 63
   250
421
  3355443
  0
ENDTAB
  0
TABLE
  2
LTYPE
  5
5
330
0
100
AcDbSymbolTable
 70
     2
  0
LTYPE
  5
5B
330
5
100
AcDbSymbolTableRecord
100
AcDbLinetypeTableRecord
  2
ByBlock
 70
     0
  3

 72
    65
 73
     0
 40
0.0
  0
LTYPE
  5
5C
330
5
100
AcDbSymbolTableRecord
100
AcDbLinetypeTableRecord
  2
ByLayer
 70
     0
  3

 72
    65
 73
     0
 40
0.0
  0
LTYPE
  5
5D
330
5
100
AcDbSymbolTableRecord
100
AcDbLinetypeTableRecord
  2
Continuous
 70
     0
  3
Solid line
 72
    65
 73
     0
 40
0.0
  0
LTYPE
  5
79
330
5
100
AcDbSymbolTableRecord
100
AcDbLinetypeTableRecord
  2
AI-Linetype-0
 70
     0
  3
Adobe Illustrator Linetype No. 0
 72
    65
 73
     2
 40
9.121239180403847
 49
7.298756417463098
 74
     0
 49
-1.822482762940748
 74
     0
  0
ENDTAB
  0
TABLE
  2
LAYER
  5
2
330
0
100
AcDbSymbolTable
 70
     1
  0
LAYER
  5
54
330
2
100
AcDbSymbolTableRecord
100
AcDbLayerTableRecord
  2
0
 70
     0
 62
     7
  6
Continuous
370
     0
390
F
347
21
348
0
  0
ENDTAB
  0
TABLE
  2
STYLE
  5
3
330
0
100
AcDbSymbolTable
 70
     2
  0
STYLE
  5
55
330
3
100
AcDbSymbolTableRecord
100
AcDbTextStyleTableRecord
  2
Standard
 70
     0
 40
0.0
 41
1.0
 50
0.0
 71
     0
 42
0.2
  3
txt
  4

  0
STYLE
  5
5A
330
3
100
AcDbSymbolTableRecord
100
AcDbTextStyleTableRecord
  2
Annotative
 70
     0
 40
0.0
 41
1.0
 50
0.0
 71
     0
 42
0.2
  3
txt
  4

1001
AcadAnnotative
1000
AnnotativeData
1002
{
1070
     1
1070
     1
1002
}
  0
ENDTAB
  0
TABLE
  2
VIEW
  5
6
330
0
100
AcDbSymbolTable
 70
     0
  0
ENDTAB
  0
TABLE
  2
UCS
  5
7
330
0
100
AcDbSymbolTable
 70
     0
  0
ENDTAB
  0
TABLE
  2
APPID
  5
9
330
0
100
AcDbSymbolTable
 70
     2
  0
APPID
  5
56
330
9
100
AcDbSymbolTableRecord
100
AcDbRegAppTableRecord
  2
ACAD
 70
     0
  0
APPID
  5
5E
330
9
100
AcDbSymbolTableRecord
100
AcDbRegAppTableRecord
  2
AcadAnnotative
 70
     0
  0
ENDTAB
  0
TABLE
  2
DIMSTYLE
  5
A
330
0
100
AcDbSymbolTable
 70
     2
100
AcDbDimStyleTable
 71
     0
  0
DIMSTYLE
105
58
330
A
100
AcDbSymbolTableRecord
100
AcDbDimStyleTableRecord
  2
Standard
 70
     0
340
55
  0
DIMSTYLE
105
59
330
A
100
AcDbSymbolTableRecord
100
AcDbDimStyleTableRecord
  2
Annotative
 70
     0
340
55
1001
AcadAnnotative
1000
AnnotativeData
1002
{
1070
     1
1070
     1
1002
}
  0
ENDTAB
  0
TABLE
  2
BLOCK_RECORD
  5
1
330
0
100
AcDbSymbolTable
 70
     3
  0
BLOCK_RECORD
  5
70
330
1
100
AcDbSymbolTableRecord
100
AcDbBlockTableRecord
  2
*Model_Space
340
73
 70
     0
280
     1
281
     0
  0
BLOCK_RECORD
  5
6C
330
1
100
AcDbSymbolTableRecord
100
AcDbBlockTableRecord
  2
*Paper_Space
340
6F
 70
     0
280
     1
281
     0
  0
BLOCK_RECORD
  5
74
330
1
100
AcDbSymbolTableRecord
100
AcDbBlockTableRecord
  2
*Paper_Space0
340
77
 70
     0
280
     1
281
     0
  0
BLOCK_RECORD
  5
87
330
1
100
AcDbSymbolTableRecord
100
AcDbBlockTableRecord
  2
Block_0
340
0
102
{BLKREFS
331
88
102
}
 70
     0
280
     1
281
     0
  0
BLOCK_RECORD
  5
8B
330
1
100
AcDbSymbolTableRecord
100
AcDbBlockTableRecord
  2
Block_1
340
0
102
{BLKREFS
331
8C
102
}
 70
     0
280
     1
281
     0
  0
ENDTAB
  0
ENDSEC
  0
SECTION
  2
BLOCKS
  0
BLOCK
  5
71
330
70
100
AcDbEntity
  8
0
100
AcDbBlockBegin
  2
*Model_Space
 70
     0
 10
0.0
 20
0.0
 30
0.0
  3
*Model_Space
  1

  0
ENDBLK
  5
72
330
70
100
AcDbEntity
  8
0
100
AcDbBlockEnd
  0
BLOCK
  5
6D
330
6C
100
AcDbEntity
 67
     1
  8
0
100
AcDbBlockBegin
  2
*Paper_Space
 70
     0
 10
0.0
 20
0.0
 30
0.0
  3
*Paper_Space
  1

  0
ENDBLK
  5
6E
330
6C
100
AcDbEntity
 67
     1
  8
0
100
AcDbBlockEnd
  0
BLOCK
  5
75
330
74
100
AcDbEntity
 67
     1
  8
0
100
AcDbBlockBegin
  2
*Paper_Space0
 70
     0
 10
0.0
 20
0.0
 30
0.0
  3
*Paper_Space0
  1

  0
ENDBLK
  5
76
330
74
100
AcDbEntity
 67
     1
  8
0
100
AcDbBlockEnd
  0
BLOCK
  5
89
330
87
100
AcDbEntity
  8
0
100
AcDbBlockBegin
  2
Block_0
 70
     0
 10
0.0
 20
0.0
 30
0.0
  3
Block_0
  1

  0
INSERT
  5
8C
330
87
100
AcDbEntity
  8
0
100
AcDbBlockReference
  2
Block_1
 10
0.0
 20
0.0
 30
0.0
  0
ENDBLK
  5
8A
330
87
100
AcDbEntity
  8
0
100
AcDbBlockEnd
  0
BLOCK
  5
8D
330
8B
100
AcDbEntity
  8
0
100
AcDbBlockBegin
  2
Block_1
 70
     0
 10
0.0
 20
0.0
 30
0.0
  3
Block_1
  1

  0
SPLINE
  5
8F
330
8B
100
AcDbEntity
  8
0
100
AcDbSpline
210
0.0
220
0.0
230
1.0
 70
     9
 71
     3
 72
    77
 73
    73
 74
     0
 42
0.0000000001
 43
0.0000000001
 40
0.0
 40
0.0
 40
0.0
 40
0.0
 40
1.0
 40
1.0
 40
1.0
 40
2.0
 40
2.0
 40
2.0
 40
3.0
 40
3.0
 40
3.0
 40
4.0
 40
4.0
 40
4.0
 40
5.0
 40
5.0
 40
5.0
 40
6.0
 40
6.0
 40
6.0
 40
7.0
 40
7.0
 40
7.0
 40
8.0
 40
8.0
 40
8.0
 40
9.0
 40
9.0
 40
9.0
 40
10.0
 40
10.0
 40
10.0
 40
11.0
 40
11.0
 40
11.0
 40
12.0
 40
12.0
 40
12.0
 40
13.0
 40
13.0
 40
13.0
 40
14.0
 40
14.0
 40
14.0
 40
15.0
 40
15.0
 40
15.0
 40
16.0
 40
16.0
 40
16.0
 40
17.0
 40
17.0
 40
17.0
 40
18.0
 40
18.0
 40
18.0
 40
19.0
 40
19.0
 40
19.0
 40
20.0
 40
20.0
 40
20.0
 40
21.0
 40
21.0
 40
21.0
 40
22.0
 40
22.0
 40
22.0
 40
23.0
 40
23.0
 40
23.0
 40
24.0
 40
24.0
 40
24.0
 40
24.0
 10
261.9795300994357
 20
141.5248670436118
 30
0.0
 10
261.9288871958025
 20
141.5248670436118
 30
0.0
 10
261.8878905595281
 20
141.5417480114895
 30
0.0
 10
261.8568847001608
 20
141.575509947245
 30
0.0
 10
261.8258788407936
 20
141.609616392549
 30
0.0
 10
261.8103759111099
 20
141.6488904810808
 30
0.0
 10
261.8103759111099
 20
141.6943657414861
 30
0.0
 10
261.8103759111099
 20
141.6943657414861
 30
0.0
 10
261.8103759111099
 20
147.2823106185614
 30
0.0
 10
261.8103759111099
 20
147.2823106185614
 30
0.0
 10
261.8103759111099
 20
147.3274413694181
 30
0.0
 10
261.8272568789877
 20
147.36671545795
 30
0.0
 10
261.8610188147431
 20
147.4008219032539
 30
0.0
 10
261.8947807504985
 20
147.4345838390094
 30
0.0
 10
261.9343993485789
 20
147.4514648068871
 30
0.0
 10
261.9795300994357
 20
147.4514648068871
 30
0.0
 10
261.9795300994357
 20
147.4514648068871
 30
0.0
 10
265.1714110665197
 20
147.4514648068871
 30
0.0
 10
265.1714110665197
 20
147.4514648068871
 30
0.0
 10
265.2165418173764
 20
147.4514648068871
 30
0.0
 10
265.2561604154568
 20
147.4345838390094
 30
0.0
 10
265.2899223512122
 20
147.4008219032539
 30
0.0
 10
265.3240287965163
 20
147.36671545795
 30
0.0
 10
265.3409097643939
 20
147.3274413694181
 30
0.0
 10
265.3409097643939
 20
147.2823106185614
 30
0.0
 10
265.3409097643939
 20
147.2313232053797
 30
0.0
 10
265.3240287965163
 20
147.1903265691052
 30
0.0
 10
265.2899223512122
 20
147.1593207097379
 30
0.0
 10
265.2561604154568
 20
147.1283148503707
 30
0.0
 10
265.2165418173764
 20
147.1128119206871
 30
0.0
 10
265.1714110665197
 20
147.1128119206871
 30
0.0
 10
265.1714110665197
 20
147.1128119206871
 30
0.0
 10
262.1235350907191
 20
147.1128119206871
 30
0.0
 10
262.1235350907191
 20
147.1128119206871
 30
0.0
 10
262.1235350907191
 20
147.1128119206871
 30
0.0
 10
262.14902879731
 20
147.1465738564425
 30
0.0
 10
262.14902879731
 20
147.1465738564425
 30
0.0
 10
262.14902879731
 20
147.1465738564425
 30
0.0
 10
262.14902879731
 20
144.7084797815312
 30
0.0
 10
262.14902879731
 20
144.7084797815312
 30
0.0
 10
262.14902879731
 20
144.7084797815312
 30
0.0
 10
262.114922352006
 20
144.7760036530421
 30
0.0
 10
262.114922352006
 20
144.7760036530421
 30
0.0
 10
262.114922352006
 20
144.7760036530421
 30
0.0
 10
264.790383505851
 20
144.7760036530421
 30
0.0
 10
264.790383505851
 20
144.7760036530421
 30
0.0
 10
264.8355142567078
 20
144.7760036530421
 30
0.0
 10
264.8751328547882
 20
144.7591226851644
 30
0.0
 10
264.9088947905436
 20
144.7253607494089
 30
0.0
 10
264.9430012358476
 20
144.6912543041049
 30
0.0
 10
264.9598822037253
 20
144.6519802155731
 30
0.0
 10
264.9598822037253
 20
144.6068494647163
 30
0.0
 10
264.9598822037253
 20
144.5558620515346
 30
0.0
 10
264.9430012358476
 20
144.5148654152601
 30
0.0
 10
264.9088947905436
 20
144.4838595558929
 30
0.0
 10
264.8751328547882
 20
144.4528536965257
 30
0.0
 10
264.8355142567078
 20
144.437350766842
 30
0.0
 10
264.790383505851
 20
144.437350766842
 30
0.0
 10
264.790383505851
 20
144.437350766842
 30
0.0
 10
262.0980413841283
 20
144.437350766842
 30
0.0
 10
262.0980413841283
 20
144.437350766842
 30
0.0
 10
262.0980413841283
 20
144.437350766842
 30
0.0
 10
262.14902879731
 20
144.5052191479014
 30
0.0
 10
262.14902879731
 20
144.5052191479014
 30
0.0
 10
262.14902879731
 20
144.5052191479014
 30
0.0
 10
262.14902879731
 20
141.6943657414861
 30
0.0
 10
262.14902879731
 20
141.6943657414861
 30
0.0
 10
262.14902879731
 20
141.6488904810808
 30
0.0
 10
262.1331813580778
 20
141.609616392549
 30
0.0
 10
262.1021754987105
 20
141.575509947245
 30
0.0
 10
262.0711696393434
 20
141.5417480114895
 30
0.0
 10
262.0305175126174
 20
141.5248670436118
 30
0.0
 10
261.9795300994357
 20
141.5248670436118
 30
0.0
  0
HATCH
  5
90
330
8B
100
AcDbEntity
  8
0
 62
    18
420
        0
440
 33554687
100
AcDbHatch
 10
0.0
 20
0.0
 30
0.0
210
0.0
220
0.0
230
1.0
  2
SOLID
 70
     1
 71
     1
 91
        1
 92
        1
 93
        1
 72
     4
 94
        3
 73
     0
 74
     0
 95
       77
 96
       73
 40
0.0
 40
0.0
 40
0.0
 40
0.0
 40
1.0
 40
1.0
 40
1.0
 40
2.0
 40
2.0
 40
2.0
 40
3.0
 40
3.0
 40
3.0
 40
4.0
 40
4.0
 40
4.0
 40
5.0
 40
5.0
 40
5.0
 40
6.0
 40
6.0
 40
6.0
 40
7.0
 40
7.0
 40
7.0
 40
8.0
 40
8.0
 40
8.0
 40
9.0
 40
9.0
 40
9.0
 40
10.0
 40
10.0
 40
10.0
 40
11.0
 40
11.0
 40
11.0
 40
12.0
 40
12.0
 40
12.0
 40
13.0
 40
13.0
 40
13.0
 40
14.0
 40
14.0
 40
14.0
 40
15.0
 40
15.0
 40
15.0
 40
16.0
 40
16.0
 40
16.0
 40
17.0
 40
17.0
 40
17.0
 40
18.0
 40
18.0
 40
18.0
 40
19.0
 40
19.0
 40
19.0
 40
20.0
 40
20.0
 40
20.0
 40
21.0
 40
21.0
 40
21.0
 40
22.0
 40
22.0
 40
22.0
 40
23.0
 40
23.0
 40
23.0
 40
24.0
 40
24.0
 40
24.0
 40
24.0
 10
261.9795300994357
 20
141.5248670436118
 10
261.9288871958025
 20
141.5248670436118
 10
261.8878905595281
 20
141.5417480114895
 10
261.8568847001608
 20
141.575509947245
 10
261.8258788407936
 20
141.609616392549
 10
261.8103759111099
 20
141.6488904810808
 10
261.8103759111099
 20
141.6943657414861
 10
261.8103759111099
 20
141.6943657414861
 10
261.8103759111099
 20
147.2823106185614
 10
261.8103759111099
 20
147.2823106185614
 10
261.8103759111099
 20
147.3274413694181
 10
261.8272568789877
 20
147.36671545795
 10
261.8610188147431
 20
147.4008219032539
 10
261.8947807504985
 20
147.4345838390094
 10
261.9343993485789
 20
147.4514648068871
 10
261.9795300994357
 20
147.4514648068871
 10
261.9795300994357
 20
147.4514648068871
 10
265.1714110665197
 20
147.4514648068871
 10
265.1714110665197
 20
147.4514648068871
 10
265.2165418173764
 20
147.4514648068871
 10
265.2561604154568
 20
147.4345838390094
 10
265.2899223512122
 20
147.4008219032539
 10
265.3240287965163
 20
147.36671545795
 10
265.3409097643939
 20
147.3274413694181
 10
265.3409097643939
 20
147.2823106185614
 10
265.3409097643939
 20
147.2313232053797
 10
265.3240287965163
 20
147.1903265691052
 10
265.2899223512122
 20
147.1593207097379
 10
265.2561604154568
 20
147.1283148503707
 10
265.2165418173764
 20
147.1128119206871
 10
265.1714110665197
 20
147.1128119206871
 10
265.1714110665197
 20
147.1128119206871
 10
262.1235350907191
 20
147.1128119206871
 10
262.1235350907191
 20
147.1128119206871
 10
262.1235350907191
 20
147.1128119206871
 10
262.14902879731
 20
147.1465738564425
 10
262.14902879731
 20
147.1465738564425
 10
262.14902879731
 20
147.1465738564425
 10
262.14902879731
 20
144.7084797815312
 10
262.14902879731
 20
144.7084797815312
 10
262.14902879731
 20
144.7084797815312
 10
262.114922352006
 20
144.7760036530421
 10
262.114922352006
 20
144.7760036530421
 10
262.114922352006
 20
144.7760036530421
 10
264.790383505851
 20
144.7760036530421
 10
264.790383505851
 20
144.7760036530421
 10
264.8355142567078
 20
144.7760036530421
 10
264.8751328547882
 20
144.7591226851644
 10
264.9088947905436
 20
144.7253607494089
 10
264.9430012358476
 20
144.6912543041049
 10
264.9598822037253
 20
144.6519802155731
 10
264.9598822037253
 20
144.6068494647163
 10
264.9598822037253
 20
144.5558620515346
 10
264.9430012358476
 20
144.5148654152601
 10
264.9088947905436
 20
144.4838595558929
 10
264.8751328547882
 20
144.4528536965257
 10
264.8355142567078
 20
144.437350766842
 10
264.790383505851
 20
144.437350766842
 10
264.790383505851
 20
144.437350766842
 10
262.0980413841283
 20
144.437350766842
 10
262.0980413841283
 20
144.437350766842
 10
262.0980413841283
 20
144.437350766842
 10
262.14902879731
 20
144.5052191479014
 10
262.14902879731
 20
144.5052191479014
 10
262.14902879731
 20
144.5052191479014
 10
262.14902879731
 20
141.6943657414861
 10
262.14902879731
 20
141.6943657414861
 10
262.14902879731
 20
141.6488904810808
 10
262.1331813580778
 20
141.609616392549
 10
262.1021754987105
 20
141.575509947245
 10
262.0711696393434
 20
141.5417480114895
 10
262.0305175126174
 20
141.5248670436118
 10
261.9795300994357
 20
141.5248670436118
 97
        0
 97
        1
330
8F
 75
     2
 76
     1
 98
        1
 10
0.0
 20
0.0
450
        0
451
        0
460
0.0
461
0.0
452
        0
462
0.0
453
        0
470

  0
SPLINE
  5
91
330
8B
100
AcDbEntity
  8
0
100
AcDbSpline
210
0.0
220
0.0
230
1.0
 70
    11
 71
     3
 72
    35
 73
    31
 74
     0
 42
0.0000000001
 43
0.0000000001
 40
0.0
 40
0.0
 40
0.0
 40
0.0
 40
1.0
 40
1.0
 40
1.0
 40
2.0
 40
2.0
 40
2.0
 40
3.0
 40
3.0
 40
3.0
 40
4.0
 40
4.0
 40
4.0
 40
5.0
 40
5.0
 40
5.0
 40
6.0
 40
6.0
 40
6.0
 40
7.0
 40
7.0
 40
7.0
 40
8.0
 40
8.0
 40
8.0
 40
9.0
 40
9.0
 40
9.0
 40
10.0
 40
10.0
 40
10.0
 40
10.0
 10
266.8815564653977
 20
144.513487377066
 30
0.0
 10
266.8815564653977
 20
144.513487377066
 30
0.0
 10
269.0574787738815
 20
144.513487377066
 30
0.0
 10
269.0574787738815
 20
144.513487377066
 30
0.0
 10
269.2831325281654
 20
144.5362250072687
 30
0.0
 10
269.49224982412
 20
144.6037488787796
 30
0.0
 10
269.6841416426484
 20
144.7167480106958
 30
0.0
 10
269.8756889516283
 20
144.829747142612
 30
0.0
 10
270.0324407962072
 20
144.987877025385
 30
0.0
 10
270.1540526668365
 20
145.1907931494662
 30
0.0
 10
270.2753200279173
 20
145.3940537830959
 30
0.0
 10
270.3359537084577
 20
145.6338324288693
 30
0.0
 10
270.3359537084577
 20
145.9104735963349
 30
0.0
 10
270.3359537084577
 20
146.2549831448598
 30
0.0
 10
270.2133083091828
 20
146.5412705796841
 30
0.0
 10
269.9676730010845
 20
146.7700249199047
 30
0.0
 10
269.7220376929862
 20
146.9984347505768
 30
0.0
 10
269.3906195073051
 20
147.1128119206871
 30
0.0
 10
268.9727294249443
 20
147.1128119206871
 30
0.0
 10
268.9727294249443
 20
147.1128119206871
 30
0.0
 10
266.9239311398662
 20
147.1128119206871
 30
0.0
 10
266.9239311398662
 20
147.1128119206871
 30
0.0
 10
266.9239311398662
 20
147.1128119206871
 30
0.0
 10
266.9663058143348
 20
147.1720675630334
 30
0.0
 10
266.9663058143348
 20
147.1720675630334
 30
0.0
 10
266.9663058143348
 20
147.1720675630334
 30
0.0
 10
266.9663058143348
 20
144.4204697989643
 30
0.0
 10
266.9663058143348
 20
144.4204697989643
 30
0.0
 10
266.9663058143348
 20
144.4204697989643
 30
0.0
 10
266.8815564653977
 20
144.513487377066
 30
0.0
 10
266.8815564653977
 20
144.513487377066
 30
0.0
  0
SPLINE
  5
92
330
8B
100
AcDbEntity
  8
0
100
AcDbSpline
210
0.0
220
0.0
230
1.0
 70
     9
 71
     3
 72
   113
 73
   109
 74
     0
 42
0.0000000001
 43
0.0000000001
 40
0.0
 40
0.0
 40
0.0
 40
0.0
 40
1.0
 40
1.0
 40
1.0
 40
2.0
 40
2.0
 40
2.0
 40
3.0
 40
3.0
 40
3.0
 40
4.0
 40
4.0
 40
4.0
 40
5.0
 40
5.0
 40
5.0
 40
6.0
 40
6.0
 40
6.0
 40
7.0
 40
7.0
 40
7.0
 40
8.0
 40
8.0
 40
8.0
 40
9.0
 40
9.0
 40
9.0
 40
10.0
 40
10.0
 40
10.0
 40
11.0
 40
11.0
 40
11.0
 40
12.0
 40
12.0
 40
12.0
 40
13.0
 40
13.0
 40
13.0
 40
14.0
 40
14.0
 40
14.0
 40
15.0
 40
15.0
 40
15.0
 40
16.0
 40
16.0
 40
16.0
 40
17.0
 40
17.0
 40
17.0
 40
18.0
 40
18.0
 40
18.0
 40
19.0
 40
19.0
 40
19.0
 40
20.0
 40
20.0
 40
20.0
 40
21.0
 40
21.0
 40
21.0
 40
22.0
 40
22.0
 40
22.0
 40
23.0
 40
23.0
 40
23.0
 40
24.0
 40
24.0
 40
24.0
 40
25.0
 40
25.0
 40
25.0
 40
26.0
 40
26.0
 40
26.0
 40
27.0
 40
27.0
 40
27.0
 40
28.0
 40
28.0
 40
28.0
 40
29.0
 40
29.0
 40
29.0
 40
30.0
 40
30.0
 40
30.0
 40
31.0
 40
31.0
 40
31.0
 40
32.0
 40
32.0
 40
32.0
 40
33.0
 40
33.0
 40
33.0
 40
34.0
 40
34.0
 40
34.0
 40
35.0
 40
35.0
 40
35.0
 40
36.0
 40
36.0
 40
36.0
 40
36.0
 10
266.788538887296
 20
141.5248670436118
 30
0.0
 10
266.7320393213378
 20
141.5248670436118
 30
0.0
 10
266.6882866086752
 20
141.5417480114895
 30
0.0
 10
266.6572807493079
 20
141.575509947245
 30
0.0
 10
266.6262748899407
 20
141.609616392549
 30
0.0
 10
266.6107719602571
 20
141.6488904810808
 30
0.0
 10
266.6107719602571
 20
141.6943657414861
 30
0.0
 10
266.6107719602571
 20
141.6943657414861
 30
0.0
 10
266.6107719602571
 20
147.2823106185614
 30
0.0
 10
266.6107719602571
 20
147.2823106185614
 30
0.0
 10
266.6107719602571
 20
147.3274413694181
 30
0.0
 10
266.6276529281347
 20
147.36671545795
 30
0.0
 10
266.6614148638903
 20
147.4008219032539
 30
0.0
 10
266.6951767996457
 20
147.4345838390094
 30
0.0
 10
266.734795397726
 20
147.4514648068871
 30
0.0
 10
266.7799261485829
 20
147.4514648068871
 30
0.0
 10
266.7799261485829
 20
147.4514648068871
 30
0.0
 10
269.0151040994129
 20
147.4514648068871
 30
0.0
 10
269.0151040994129
 20
147.4514648068871
 30
0.0
 10
269.3482448328365
 20
147.4514648068871
 30
0.0
 10
269.6403889299858
 20
147.3849744640218
 30
0.0
 10
269.8915363908604
 20
147.2526827973882
 30
0.0
 10
270.1426838517352
 20
147.1200466212061
 30
0.0
 10
270.3387097848459
 20
146.9378010700364
 30
0.0
 10
270.4799586997411
 20
146.7066351629761
 30
0.0
 10
270.6208631050878
 20
146.4751247463673
 30
0.0
 10
270.6914875625355
 20
146.2126084703913
 30
0.0
 10
270.6914875625355
 20
145.919086335048
 30
0.0
 10
270.6914875625355
 20
145.6593261354601
 30
0.0
 10
270.6449787734846
 20
145.4250596424632
 30
0.0
 10
270.5519611953828
 20
145.216286856057
 30
0.0
 10
270.4585991077326
 20
145.0075140696509
 30
0.0
 10
270.3287190079387
 20
144.8338812571943
 30
0.0
 10
270.1623208960011
 20
144.6957329282358
 30
0.0
 10
269.9959227840635
 20
144.5572400897287
 30
0.0
 10
269.8054090037292
 20
144.456987811108
 30
0.0
 10
269.5907795549981
 20
144.3949760923735
 30
0.0
 10
269.5907795549981
 20
144.3949760923735
 30
0.0
 10
269.2014837651649
 20
144.4628444734329
 30
0.0
 10
269.2014837651649
 20
144.4628444734329
 30
0.0
 10
269.4271375194488
 20
144.4628444734329
 30
0.0
 10
269.6417669681799
 20
144.4049668692807
 30
0.0
 10
269.8450276018096
 20
144.2892116609763
 30
0.0
 10
270.0479437258908
 20
144.1734564526719
 30
0.0
 10
270.2146863473769
 20
144.0043022643461
 30
0.0
 10
270.3445664471708
 20
143.7814045864505
 30
0.0
 10
270.4741020374162
 20
143.5581623990063
 30
0.0
 10
270.5392143420874
 20
143.2859998556715
 30
0.0
 10
270.5392143420874
 20
142.9642279373492
 30
0.0
 10
270.5392143420874
 20
142.6875867698836
 30
0.0
 10
270.5519611953828
 20
142.4774359452834
 30
0.0
 10
270.5771103924252
 20
142.333430954
 30
0.0
 10
270.6026040990161
 20
142.1894259627165
 30
0.0
 10
270.6363660347715
 20
142.0836615313193
 30
0.0
 10
270.67874070924
 20
142.0157931502599
 30
0.0
 10
270.7211153837087
 20
141.948269278749
 30
0.0
 10
270.7703802491477
 20
141.8945257891791
 30
0.0
 10
270.8268798151058
 20
141.8549071910988
 30
0.0
 10
270.8609862604098
 20
141.8325140704446
 30
0.0
 10
270.8861354574521
 20
141.8042642874656
 30
0.0
 10
270.9033609348783
 20
141.7705023517101
 30
0.0
 10
270.920241902756
 20
141.7363959064062
 30
0.0
 10
270.9229979791443
 20
141.6971218178743
 30
0.0
 10
270.9116291640429
 20
141.6519910670175
 30
0.0
 10
270.9002603489416
 20
141.6178846217136
 30
0.0
 10
270.8820013428698
 20
141.5910128769286
 30
0.0
 10
270.8565076362789
 20
141.5713758326627
 30
0.0
 10
270.8313584392366
 20
141.5517387883968
 30
0.0
 10
270.8044866944517
 20
141.5389919351014
 30
0.0
 10
270.7762369114726
 20
141.5334797823249
 30
0.0
 10
270.7479871284935
 20
141.52762312
 30
0.0
 10
270.7169812691263
 20
141.5334797823249
 30
0.0
 10
270.6832193333708
 20
141.5503607502027
 30
0.0
 10
270.6039821372101
 20
141.5954915010594
 30
0.0
 10
270.526467488792
 20
141.6630153725703
 30
0.0
 10
270.450330878568
 20
141.7536213838324
 30
0.0
 10
270.374194268344
 20
141.8435383759975
 30
0.0
 10
270.3104600018668
 20
141.9820312145045
 30
0.0
 10
270.2598170982337
 20
142.1684108802565
 30
0.0
 10
270.2088296850519
 20
142.35444603646
 30
0.0
 10
270.1836804880096
 20
142.6197183888242
 30
0.0
 10
270.1836804880096
 20
142.9642279373492
 30
0.0
 10
270.1836804880096
 20
143.2295002897134
 30
0.0
 10
270.1426838517352
 20
143.4410291525078
 30
0.0
 10
270.0606905791862
 20
143.5991590352807
 30
0.0
 10
269.9790418161858
 20
143.7572889180537
 30
0.0
 10
269.8746554229828
 20
143.8785562791345
 30
0.0
 10
269.7475313995771
 20
143.9633056280717
 30
0.0
 10
269.6204073761713
 20
144.0480549770088
 30
0.0
 10
269.485015123601
 20
144.1042100334184
 30
0.0
 10
269.3410101323175
 20
144.1324598163974
 30
0.0
 10
269.1973496505826
 20
144.1607095993765
 30
0.0
 10
269.0660915125946
 20
144.174834490866
 30
0.0
 10
268.947580227902
 20
144.174834490866
 30
0.0
 10
268.947580227902
 20
144.174834490866
 30
0.0
 10
266.8901692041108
 20
144.174834490866
 30
0.0
 10
266.8901692041108
 20
144.174834490866
 30
0.0
 10
266.8901692041108
 20
144.174834490866
 30
0.0
 10
266.9663058143348
 20
144.2764648076809
 30
0.0
 10
266.9663058143348
 20
144.2764648076809
 30
0.0
 10
266.9663058143348
 20
144.2764648076809
 30
0.0
 10
266.9663058143348
 20
141.6943657414861
 30
0.0
 10
266.9663058143348
 20
141.6943657414861
 30
0.0
 10
266.9663058143348
 20
141.6488904810808
 30
0.0
 10
266.9494248464571
 20
141.609616392549
 30
0.0
 10
266.9153184011531
 20
141.575509947245
 30
0.0
 10
266.8815564653977
 20
141.5417480114895
 30
0.0
 10
266.8391817909291
 20
141.5248670436118
 30
0.0
 10
266.788538887296
 20
141.5248670436118
 30
0.0
  0
HATCH
  5
93
330
8B
100
AcDbEntity
  8
0
 62
    18
420
        0
440
 33554687
100
AcDbHatch
 10
0.0
 20
0.0
 30
0.0
210
0.0
220
0.0
230
1.0
  2
SOLID
 70
     1
 71
     1
 91
        2
 92
        1
 93
        1
 72
     4
 94
        3
 73
     0
 74
     0
 95
       35
 96
       31
 40
0.0
 40
0.0
 40
0.0
 40
0.0
 40
1.0
 40
1.0
 40
1.0
 40
2.0
 40
2.0
 40
2.0
 40
3.0
 40
3.0
 40
3.0
 40
4.0
 40
4.0
 40
4.0
 40
5.0
 40
5.0
 40
5.0
 40
6.0
 40
6.0
 40
6.0
 40
7.0
 40
7.0
 40
7.0
 40
8.0
 40
8.0
 40
8.0
 40
9.0
 40
9.0
 40
9.0
 40
10.0
 40
10.0
 40
10.0
 40
10.0
 10
266.8815564653977
 20
144.513487377066
 10
266.8815564653977
 20
144.513487377066
 10
269.0574787738815
 20
144.513487377066
 10
269.0574787738815
 20
144.513487377066
 10
269.2831325281654
 20
144.5362250072687
 10
269.49224982412
 20
144.6037488787796
 10
269.6841416426484
 20
144.7167480106958
 10
269.8756889516283
 20
144.829747142612
 10
270.0324407962072
 20
144.987877025385
 10
270.1540526668365
 20
145.1907931494662
 10
270.2753200279173
 20
145.3940537830959
 10
270.3359537084577
 20
145.6338324288693
 10
270.3359537084577
 20
145.9104735963349
 10
270.3359537084577
 20
146.2549831448598
 10
270.2133083091828
 20
146.5412705796841
 10
269.9676730010845
 20
146.7700249199047
 10
269.7220376929862
 20
146.9984347505768
 10
269.3906195073051
 20
147.1128119206871
 10
268.9727294249443
 20
147.1128119206871
 10
268.9727294249443
 20
147.1128119206871
 10
266.9239311398662
 20
147.1128119206871
 10
266.9239311398662
 20
147.1128119206871
 10
266.9239311398662
 20
147.1128119206871
 10
266.9663058143348
 20
147.1720675630334
 10
266.9663058143348
 20
147.1720675630334
 10
266.9663058143348
 20
147.1720675630334
 10
266.9663058143348
 20
144.4204697989643
 10
266.9663058143348
 20
144.4204697989643
 10
266.9663058143348
 20
144.4204697989643
 10
266.8815564653977
 20
144.513487377066
 10
266.8815564653977
 20
144.513487377066
 97
        0
 97
        1
330
91
 92
        1
 93
        1
 72
     4
 94
        3
 73
     0
 74
     0
 95
      113
 96
      109
 40
0.0
 40
0.0
 40
0.0
 40
0.0
 40
1.0
 40
1.0
 40
1.0
 40
2.0
 40
2.0
 40
2.0
 40
3.0
 40
3.0
 40
3.0
 40
4.0
 40
4.0
 40
4.0
 40
5.0
 40
5.0
 40
5.0
 40
6.0
 40
6.0
 40
6.0
 40
7.0
 40
7.0
 40
7.0
 40
8.0
 40
8.0
 40
8.0
 40
9.0
 40
9.0
 40
9.0
 40
10.0
 40
10.0
 40
10.0
 40
11.0
 40
11.0
 40
11.0
 40
12.0
 40
12.0
 40
12.0
 40
13.0
 40
13.0
 40
13.0
 40
14.0
 40
14.0
 40
14.0
 40
15.0
 40
15.0
 40
15.0
 40
16.0
 40
16.0
 40
16.0
 40
17.0
 40
17.0
 40
17.0
 40
18.0
 40
18.0
 40
18.0
 40
19.0
 40
19.0
 40
19.0
 40
20.0
 40
20.0
 40
20.0
 40
21.0
 40
21.0
 40
21.0
 40
22.0
 40
22.0
 40
22.0
 40
23.0
 40
23.0
 40
23.0
 40
24.0
 40
24.0
 40
24.0
 40
25.0
 40
25.0
 40
25.0
 40
26.0
 40
26.0
 40
26.0
 40
27.0
 40
27.0
 40
27.0
 40
28.0
 40
28.0
 40
28.0
 40
29.0
 40
29.0
 40
29.0
 40
30.0
 40
30.0
 40
30.0
 40
31.0
 40
31.0
 40
31.0
 40
32.0
 40
32.0
 40
32.0
 40
33.0
 40
33.0
 40
33.0
 40
34.0
 40
34.0
 40
34.0
 40
35.0
 40
35.0
 40
35.0
 40
36.0
 40
36.0
 40
36.0
 40
36.0
 10
266.788538887296
 20
141.5248670436118
 10
266.7320393213378
 20
141.5248670436118
 10
266.6882866086752
 20
141.5417480114895
 10
266.6572807493079
 20
141.575509947245
 10
266.6262748899407
 20
141.609616392549
 10
266.6107719602571
 20
141.6488904810808
 10
266.6107719602571
 20
141.6943657414861
 10
266.6107719602571
 20
141.6943657414861
 10
266.6107719602571
 20
147.2823106185614
 10
266.6107719602571
 20
147.2823106185614
 10
266.6107719602571
 20
147.3274413694181
 10
266.6276529281347
 20
147.36671545795
 10
266.6614148638903
 20
147.4008219032539
 10
266.6951767996457
 20
147.4345838390094
 10
266.734795397726
 20
147.4514648068871
 10
266.7799261485829
 20
147.4514648068871
 10
266.7799261485829
 20
147.4514648068871
 10
269.0151040994129
 20
147.4514648068871
 10
269.0151040994129
 20
147.4514648068871
 10
269.3482448328365
 20
147.4514648068871
 10
269.6403889299858
 20
147.3849744640218
 10
269.8915363908604
 20
147.2526827973882
 10
270.1426838517352
 20
147.1200466212061
 10
270.3387097848459
 20
146.9378010700364
 10
270.4799586997411
 20
146.7066351629761
 10
270.6208631050878
 20
146.4751247463673
 10
270.6914875625355
 20
146.2126084703913
 10
270.6914875625355
 20
145.919086335048
 10
270.6914875625355
 20
145.6593261354601
 10
270.6449787734846
 20
145.4250596424632
 10
270.5519611953828
 20
145.216286856057
 10
270.4585991077326
 20
145.0075140696509
 10
270.3287190079387
 20
144.8338812571943
 10
270.1623208960011
 20
144.6957329282358
 10
269.9959227840635
 20
144.5572400897287
 10
269.8054090037292
 20
144.456987811108
 10
269.5907795549981
 20
144.3949760923735
 10
269.5907795549981
 20
144.3949760923735
 10
269.2014837651649
 20
144.4628444734329
 10
269.2014837651649
 20
144.4628444734329
 10
269.4271375194488
 20
144.4628444734329
 10
269.6417669681799
 20
144.4049668692807
 10
269.8450276018096
 20
144.2892116609763
 10
270.0479437258908
 20
144.1734564526719
 10
270.2146863473769
 20
144.0043022643461
 10
270.3445664471708
 20
143.7814045864505
 10
270.4741020374162
 20
143.5581623990063
 10
270.5392143420874
 20
143.2859998556715
 10
270.5392143420874
 20
142.9642279373492
 10
270.5392143420874
 20
142.6875867698836
 10
270.5519611953828
 20
142.4774359452834
 10
270.5771103924252
 20
142.333430954
 10
270.6026040990161
 20
142.1894259627165
 10
270.6363660347715
 20
142.0836615313193
 10
270.67874070924
 20
142.0157931502599
 10
270.7211153837087
 20
141.948269278749
 10
270.7703802491477
 20
141.8945257891791
 10
270.8268798151058
 20
141.8549071910988
 10
270.8609862604098
 20
141.8325140704446
 10
270.8861354574521
 20
141.8042642874656
 10
270.9033609348783
 20
141.7705023517101
 10
270.920241902756
 20
141.7363959064062
 10
270.9229979791443
 20
141.6971218178743
 10
270.9116291640429
 20
141.6519910670175
 10
270.9002603489416
 20
141.6178846217136
 10
270.8820013428698
 20
141.5910128769286
 10
270.8565076362789
 20
141.5713758326627
 10
270.8313584392366
 20
141.5517387883968
 10
270.8044866944517
 20
141.5389919351014
 10
270.7762369114726
 20
141.5334797823249
 10
270.7479871284935
 20
141.52762312
 10
270.7169812691263
 20
141.5334797823249
 10
270.6832193333708
 20
141.5503607502027
 10
270.6039821372101
 20
141.5954915010594
 10
270.526467488792
 20
141.6630153725703
 10
270.450330878568
 20
141.7536213838324
 10
270.374194268344
 20
141.8435383759975
 10
270.3104600018668
 20
141.9820312145045
 10
270.2598170982337
 20
142.1684108802565
 10
270.2088296850519
 20
142.35444603646
 10
270.1836804880096
 20
142.6197183888242
 10
270.1836804880096
 20
142.9642279373492
 10
270.1836804880096
 20
143.2295002897134
 10
270.1426838517352
 20
143.4410291525078
 10
270.0606905791862
 20
143.5991590352807
 10
269.9790418161858
 20
143.7572889180537
 10
269.8746554229828
 20
143.8785562791345
 10
269.7475313995771
 20
143.9633056280717
 10
269.6204073761713
 20
144.0480549770088
 10
269.485015123601
 20
144.1042100334184
 10
269.3410101323175
 20
144.1324598163974
 10
269.1973496505826
 20
144.1607095993765
 10
269.0660915125946
 20
144.174834490866
 10
268.947580227902
 20
144.174834490866
 10
268.947580227902
 20
144.174834490866
 10
266.8901692041108
 20
144.174834490866
 10
266.8901692041108
 20
144.174834490866
 10
266.8901692041108
 20
144.174834490866
 10
266.9663058143348
 20
144.2764648076809
 10
266.9663058143348
 20
144.2764648076809
 10
266.9663058143348
 20
144.2764648076809
 10
266.9663058143348
 20
141.6943657414861
 10
266.9663058143348
 20
141.6943657414861
 10
266.9663058143348
 20
141.6488904810808
 10
266.9494248464571
 20
141.609616392549
 10
266.9153184011531
 20
141.575509947245
 10
266.8815564653977
 20
141.5417480114895
 10
266.8391817909291
 20
141.5248670436118
 10
266.788538887296
 20
141.5248670436118
 97
        0
 97
        1
330
92
 75
     2
 76
     1
 98
        1
 10
0.0
 20
0.0
450
        0
451
        0
460
0.0
461
0.0
452
        0
462
0.0
453
        0
470

  0
SPLINE
  5
94
330
8B
100
AcDbEntity
  8
0
100
AcDbSpline
210
0.0
220
0.0
230
1.0
 70
     9
 71
     3
 72
    41
 73
    37
 74
     0
 42
0.0000000001
 43
0.0000000001
 40
0.0
 40
0.0
 40
0.0
 40
0.0
 40
1.0
 40
1.0
 40
1.0
 40
2.0
 40
2.0
 40
2.0
 40
3.0
 40
3.0
 40
3.0
 40
4.0
 40
4.0
 40
4.0
 40
5.0
 40
5.0
 40
5.0
 40
6.0
 40
6.0
 40
6.0
 40
7.0
 40
7.0
 40
7.0
 40
8.0
 40
8.0
 40
8.0
 40
9.0
 40
9.0
 40
9.0
 40
10.0
 40
10.0
 40
10.0
 40
11.0
 40
11.0
 40
11.0
 40
12.0
 40
12.0
 40
12.0
 40
12.0
 10
277.0242620835217
 20
144.4883381800237
 30
0.0
 10
277.0242620835217
 20
145.029907190305
 30
0.0
 10
276.9184976521245
 20
145.5042968386239
 30
0.0
 10
276.7069687893302
 20
145.9104735963349
 30
0.0
 10
276.4950954169874
 20
146.3169948635943
 30
0.0
 10
276.2043293580323
 20
146.6329101195917
 30
0.0
 10
275.8346706124649
 20
146.8589083834241
 30
0.0
 10
275.4650118668977
 20
147.084562137708
 30
0.0
 10
275.0374755171782
 20
147.1975612696242
 30
0.0
 10
274.5520615633064
 20
147.1975612696242
 30
0.0
 10
274.0721597622111
 20
147.1975612696242
 30
0.0
 10
273.6463459602343
 20
147.084562137708
 30
0.0
 10
273.2735866287303
 20
146.8589083834241
 30
0.0
 10
272.9011718067747
 20
146.6329101195917
 30
0.0
 10
272.6090277096255
 20
146.3169948635943
 30
0.0
 10
272.3974988468312
 20
145.9104735963349
 30
0.0
 10
272.1856254744884
 20
145.5042968386239
 30
0.0
 10
272.0798610430912
 20
145.029907190305
 30
0.0
 10
272.0798610430912
 20
144.4883381800237
 30
0.0
 10
272.0798610430912
 20
143.9464246601939
 30
0.0
 10
272.1856254744884
 20
143.472035011875
 30
0.0
 10
272.3974988468312
 20
143.0658582541641
 30
0.0
 10
272.6090277096255
 20
142.6593369869046
 30
0.0
 10
272.9011718067747
 20
142.3430772213587
 30
0.0
 10
273.2735866287303
 20
142.1174234670748
 30
0.0
 10
273.6463459602343
 20
141.8917697127909
 30
0.0
 10
274.0721597622111
 20
141.7787705808747
 30
0.0
 10
274.5520615633064
 20
141.7787705808747
 30
0.0
 10
275.0374755171782
 20
141.7787705808747
 30
0.0
 10
275.4650118668977
 20
141.8917697127909
 30
0.0
 10
275.8346706124649
 20
142.1174234670748
 30
0.0
 10
276.2043293580323
 20
142.3430772213587
 30
0.0
 10
276.4950954169874
 20
142.6593369869046
 30
0.0
 10
276.7069687893302
 20
143.0658582541641
 30
0.0
 10
276.9184976521245
 20
143.472035011875
 30
0.0
 10
277.0242620835217
 20
143.9464246601939
 30
0.0
 10
277.0242620835217
 20
144.4883381800237
 30
0.0
  0
SPLINE
  5
95
330
8B
100
AcDbEntity
  8
0
100
AcDbSpline
210
0.0
220
0.0
230
1.0
 70
     9
 71
     3
 72
    53
 73
    49
 74
     0
 42
0.0000000001
 43
0.0000000001
 40
0.0
 40
0.0
 40
0.0
 40
0.0
 40
1.0
 40
1.0
 40
1.0
 40
2.0
 40
2.0
 40
2.0
 40
3.0
 40
3.0
 40
3.0
 40
4.0
 40
4.0
 40
4.0
 40
5.0
 40
5.0
 40
5.0
 40
6.0
 40
6.0
 40
6.0
 40
7.0
 40
7.0
 40
7.0
 40
8.0
 40
8.0
 40
8.0
 40
9.0
 40
9.0
 40
9.0
 40
10.0
 40
10.0
 40
10.0
 40
11.0
 40
11.0
 40
11.0
 40
12.0
 40
12.0
 40
12.0
 40
13.0
 40
13.0
 40
13.0
 40
14.0
 40
14.0
 40
14.0
 40
15.0
 40
15.0
 40
15.0
 40
16.0
 40
16.0
 40
16.0
 40
16.0
 10
277.380140447148
 20
144.4883381800237
 30
0.0
 10
277.380140447148
 20
144.0366861619075
 30
0.0
 10
277.3108940278945
 20
143.6246527418716
 30
0.0
 10
277.1724011893875
 20
143.2522379199161
 30
0.0
 10
277.0342528604289
 20
142.8794785884121
 30
0.0
 10
276.8382269273183
 20
142.5577066700897
 30
0.0
 10
276.5839788805068
 20
142.2869221649491
 30
0.0
 10
276.3300753432439
 20
142.0157931502599
 30
0.0
 10
276.0310410551242
 20
141.8070203638538
 30
0.0
 10
275.6865315065992
 20
141.6602592961822
 30
0.0
 10
275.3423664676228
 20
141.5134982285105
 30
0.0
 10
274.9640949833423
 20
141.4401176946747
 30
0.0
 10
274.5520615633064
 20
141.4401176946747
 30
0.0
 10
274.1400281432706
 20
141.4401176946747
 30
0.0
 10
273.7617566589901
 20
141.5134982285105
 30
0.0
 10
273.4175916200137
 20
141.6602592961822
 30
0.0
 10
273.0730820714887
 20
141.8070203638538
 30
0.0
 10
272.774047783369
 20
142.0157931502599
 30
0.0
 10
272.5201442461061
 20
142.2869221649491
 30
0.0
 10
272.2662407088431
 20
142.5577066700897
 30
0.0
 10
272.0698702661839
 20
142.8794785884121
 30
0.0
 10
271.9317219372254
 20
143.2522379199161
 30
0.0
 10
271.7932290987184
 20
143.6246527418716
 30
0.0
 10
271.7243271890134
 20
144.0366861619075
 30
0.0
 10
271.7243271890134
 20
144.4883381800237
 30
0.0
 10
271.7243271890134
 20
144.9396456885915
 30
0.0
 10
271.7932290987184
 20
145.3516791086273
 30
0.0
 10
271.9317219372254
 20
145.7244384401314
 30
0.0
 10
272.0698702661839
 20
146.0968532620869
 30
0.0
 10
272.2662407088431
 20
146.4186251804092
 30
0.0
 10
272.5201442461061
 20
146.6894096855499
 30
0.0
 10
272.774047783369
 20
146.960538700239
 30
0.0
 10
273.0730820714887
 20
147.1693114866452
 30
0.0
 10
273.4175916200137
 20
147.3160725543168
 30
0.0
 10
273.7617566589901
 20
147.4628336219884
 30
0.0
 10
274.1400281432706
 20
147.5362141558243
 30
0.0
 10
274.5520615633064
 20
147.5362141558243
 30
0.0
 10
274.9640949833423
 20
147.5362141558243
 30
0.0
 10
275.3423664676228
 20
147.4628336219884
 30
0.0
 10
275.6865315065992
 20
147.3160725543168
 30
0.0
 10
276.0310410551242
 20
147.1693114866452
 30
0.0
 10
276.3300753432439
 20
146.960538700239
 30
0.0
 10
276.5839788805068
 20
146.6894096855499
 30
0.0
 10
276.8382269273183
 20
146.4186251804092
 30
0.0
 10
277.0342528604289
 20
146.0968532620869
 30
0.0
 10
277.1724011893875
 20
145.7244384401314
 30
0.0
 10
277.3108940278945
 20
145.3516791086273
 30
0.0
 10
277.380140447148
 20
144.9396456885915
 30
0.0
 10
277.380140447148
 20
144.4883381800237
 30
0.0
  0
HATCH
  5
96
330
8B
100
AcDbEntity
  8
0
 62
    18
420
        0
440
 33554687
100
AcDbHatch
 10
0.0
 20
0.0
 30
0.0
210
0.0
220
0.0
230
1.0
  2
SOLID
 70
     1
 71
     1
 91
        2
 92
        1
 93
        1
 72
     4
 94
        3
 73
     0
 74
     0
 95
       41
 96
       37
 40
0.0
 40
0.0
 40
0.0
 40
0.0
 40
1.0
 40
1.0
 40
1.0
 40
2.0
 40
2.0
 40
2.0
 40
3.0
 40
3.0
 40
3.0
 40
4.0
 40
4.0
 40
4.0
 40
5.0
 40
5.0
 40
5.0
 40
6.0
 40
6.0
 40
6.0
 40
7.0
 40
7.0
 40
7.0
 40
8.0
 40
8.0
 40
8.0
 40
9.0
 40
9.0
 40
9.0
 40
10.0
 40
10.0
 40
10.0
 40
11.0
 40
11.0
 40
11.0
 40
12.0
 40
12.0
 40
12.0
 40
12.0
 10
277.0242620835217
 20
144.4883381800237
 10
277.0242620835217
 20
145.029907190305
 10
276.9184976521245
 20
145.5042968386239
 10
276.7069687893302
 20
145.9104735963349
 10
276.4950954169874
 20
146.3169948635943
 10
276.2043293580323
 20
146.6329101195917
 10
275.8346706124649
 20
146.8589083834241
 10
275.4650118668977
 20
147.084562137708
 10
275.0374755171782
 20
147.1975612696242
 10
274.5520615633064
 20
147.1975612696242
 10
274.0721597622111
 20
147.1975612696242
 10
273.6463459602343
 20
147.084562137708
 10
273.2735866287303
 20
146.8589083834241
 10
272.9011718067747
 20
146.6329101195917
 10
272.6090277096255
 20
146.3169948635943
 10
272.3974988468312
 20
145.9104735963349
 10
272.1856254744884
 20
145.5042968386239
 10
272.0798610430912
 20
145.029907190305
 10
272.0798610430912
 20
144.4883381800237
 10
272.0798610430912
 20
143.9464246601939
 10
272.1856254744884
 20
143.472035011875
 10
272.3974988468312
 20
143.0658582541641
 10
272.6090277096255
 20
142.6593369869046
 10
272.9011718067747
 20
142.3430772213587
 10
273.2735866287303
 20
142.1174234670748
 10
273.6463459602343
 20
141.8917697127909
 10
274.0721597622111
 20
141.7787705808747
 10
274.5520615633064
 20
141.7787705808747
 10
275.0374755171782
 20
141.7787705808747
 10
275.4650118668977
 20
141.8917697127909
 10
275.8346706124649
 20
142.1174234670748
 10
276.2043293580323
 20
142.3430772213587
 10
276.4950954169874
 20
142.6593369869046
 10
276.7069687893302
 20
143.0658582541641
 10
276.9184976521245
 20
143.472035011875
 10
277.0242620835217
 20
143.9464246601939
 10
277.0242620835217
 20
144.4883381800237
 97
        0
 97
        1
330
94
 92
        1
 93
        1
 72
     4
 94
        3
 73
     0
 74
     0
 95
       53
 96
       49
 40
0.0
 40
0.0
 40
0.0
 40
0.0
 40
1.0
 40
1.0
 40
1.0
 40
2.0
 40
2.0
 40
2.0
 40
3.0
 40
3.0
 40
3.0
 40
4.0
 40
4.0
 40
4.0
 40
5.0
 40
5.0
 40
5.0
 40
6.0
 40
6.0
 40
6.0
 40
7.0
 40
7.0
 40
7.0
 40
8.0
 40
8.0
 40
8.0
 40
9.0
 40
9.0
 40
9.0
 40
10.0
 40
10.0
 40
10.0
 40
11.0
 40
11.0
 40
11.0
 40
12.0
 40
12.0
 40
12.0
 40
13.0
 40
13.0
 40
13.0
 40
14.0
 40
14.0
 40
14.0
 40
15.0
 40
15.0
 40
15.0
 40
16.0
 40
16.0
 40
16.0
 40
16.0
 10
277.380140447148
 20
144.4883381800237
 10
277.380140447148
 20
144.0366861619075
 10
277.3108940278945
 20
143.6246527418716
 10
277.1724011893875
 20
143.2522379199161
 10
277.0342528604289
 20
142.8794785884121
 10
276.8382269273183
 20
142.5577066700897
 10
276.5839788805068
 20
142.2869221649491
 10
276.3300753432439
 20
142.0157931502599
 10
276.0310410551242
 20
141.8070203638538
 10
275.6865315065992
 20
141.6602592961822
 10
275.3423664676228
 20
141.5134982285105
 10
274.9640949833423
 20
141.4401176946747
 10
274.5520615633064
 20
141.4401176946747
 10
274.1400281432706
 20
141.4401176946747
 10
273.7617566589901
 20
141.5134982285105
 10
273.4175916200137
 20
141.6602592961822
 10
273.0730820714887
 20
141.8070203638538
 10
272.774047783369
 20
142.0157931502599
 10
272.5201442461061
 20
142.2869221649491
 10
272.2662407088431
 20
142.5577066700897
 10
272.0698702661839
 20
142.8794785884121
 10
271.9317219372254
 20
143.2522379199161
 10
271.7932290987184
 20
143.6246527418716
 10
271.7243271890134
 20
144.0366861619075
 10
271.7243271890134
 20
144.4883381800237
 10
271.7243271890134
 20
144.9396456885915
 10
271.7932290987184
 20
145.3516791086273
 10
271.9317219372254
 20
145.7244384401314
 10
272.0698702661839
 20
146.0968532620869
 10
272.2662407088431
 20
146.4186251804092
 10
272.5201442461061
 20
146.6894096855499
 10
272.774047783369
 20
146.960538700239
 10
273.0730820714887
 20
147.1693114866452
 10
273.4175916200137
 20
147.3160725543168
 10
273.7617566589901
 20
147.4628336219884
 10
274.1400281432706
 20
147.5362141558243
 10
274.5520615633064
 20
147.5362141558243
 10
274.9640949833423
 20
147.5362141558243
 10
275.3423664676228
 20
147.4628336219884
 10
275.6865315065992
 20
147.3160725543168
 10
276.0310410551242
 20
147.1693114866452
 10
276.3300753432439
 20
146.960538700239
 10
276.5839788805068
 20
146.6894096855499
 10
276.8382269273183
 20
146.4186251804092
 10
277.0342528604289
 20
146.0968532620869
 10
277.1724011893875
 20
145.7244384401314
 10
277.3108940278945
 20
145.3516791086273
 10
277.380140447148
 20
144.9396456885915
 10
277.380140447148
 20
144.4883381800237
 97
        0
 97
        1
330
95
 75
     2
 76
     1
 98
        1
 10
0.0
 20
0.0
450
        0
451
        0
460
0.0
461
0.0
452
        0
462
0.0
453
        0
470

  0
SPLINE
  5
97
330
8B
100
AcDbEntity
  8
0
100
AcDbSpline
210
0.0
220
0.0
230
1.0
 70
     9
 71
     3
 72
    77
 73
    73
 74
     0
 42
0.0000000001
 43
0.0000000001
 40
0.0
 40
0.0
 40
0.0
 40
0.0
 40
1.0
 40
1.0
 40
1.0
 40
2.0
 40
2.0
 40
2.0
 40
3.0
 40
3.0
 40
3.0
 40
4.0
 40
4.0
 40
4.0
 40
5.0
 40
5.0
 40
5.0
 40
6.0
 40
6.0
 40
6.0
 40
7.0
 40
7.0
 40
7.0
 40
8.0
 40
8.0
 40
8.0
 40
9.0
 40
9.0
 40
9.0
 40
10.0
 40
10.0
 40
10.0
 40
11.0
 40
11.0
 40
11.0
 40
12.0
 40
12.0
 40
12.0
 40
13.0
 40
13.0
 40
13.0
 40
14.0
 40
14.0
 40
14.0
 40
15.0
 40
15.0
 40
15.0
 40
16.0
 40
16.0
 40
16.0
 40
17.0
 40
17.0
 40
17.0
 40
18.0
 40
18.0
 40
18.0
 40
19.0
 40
19.0
 40
19.0
 40
20.0
 40
20.0
 40
20.0
 40
21.0
 40
21.0
 40
21.0
 40
22.0
 40
22.0
 40
22.0
 40
23.0
 40
23.0
 40
23.0
 40
24.0
 40
24.0
 40
24.0
 40
24.0
 10
282.9339788789193
 20
147.4514648068871
 30
0.0
 10
282.984966292101
 20
147.4514648068871
 30
0.0
 10
283.0242403806328
 20
147.4359618772035
 30
0.0
 10
283.0524901636119
 20
147.4049560178363
 30
0.0
 10
283.0807399465909
 20
147.373950158469
 30
0.0
 10
283.0948648380805
 20
147.3357095985827
 30
0.0
 10
283.0948648380805
 20
147.290578847726
 30
0.0
 10
283.0948648380805
 20
147.290578847726
 30
0.0
 10
283.0948648380805
 20
141.7112467093638
 30
0.0
 10
283.0948648380805
 20
141.7112467093638
 30
0.0
 10
283.0948648380805
 20
141.6488904810808
 30
0.0
 10
283.0766058320086
 20
141.60238169203
 30
0.0
 10
283.0397433103165
 20
141.5713758326627
 30
0.0
 10
283.0032252981728
 20
141.5403699732954
 30
0.0
 10
282.9622286618983
 20
141.5248670436118
 30
0.0
 10
282.9170979110416
 20
141.5248670436118
 30
0.0
 10
282.8943602808389
 20
141.5248670436118
 30
0.0
 10
282.8705891219907
 20
141.5303791963882
 30
0.0
 10
282.8450954153998
 20
141.5417480114895
 30
0.0
 10
282.819601708809
 20
141.5531168265909
 30
0.0
 10
282.798586626349
 20
141.5699977944686
 30
0.0
 10
282.7817056584713
 20
141.5927354246712
 30
0.0
 10
282.7817056584713
 20
141.5927354246712
 30
0.0
 10
278.8529187670923
 20
146.960538700239
 30
0.0
 10
278.8529187670923
 20
146.960538700239
 30
0.0
 10
278.8529187670923
 20
146.960538700239
 30
0.0
 10
278.9714300517849
 20
147.0197943425853
 30
0.0
 10
278.9714300517849
 20
147.0197943425853
 30
0.0
 10
278.9714300517849
 20
147.0197943425853
 30
0.0
 10
278.9714300517849
 20
141.6688720348953
 30
0.0
 10
278.9714300517849
 20
141.6688720348953
 30
0.0
 10
278.9714300517849
 20
141.6292534368149
 30
0.0
 10
278.9559271221013
 20
141.5954915010594
 30
0.0
 10
278.9249212627341
 20
141.5672417180804
 30
0.0
 10
278.8939154033668
 20
141.5389919351014
 30
0.0
 10
278.8556748434805
 20
141.5248670436118
 30
0.0
 10
278.8108886021723
 20
141.5248670436118
 30
0.0
 10
278.7599011889906
 20
141.5248670436118
 30
0.0
 10
278.7202825909103
 20
141.5389919351014
 30
0.0
 10
278.6920328079312
 20
141.5672417180804
 30
0.0
 10
278.6637830249521
 20
141.5954915010594
 30
0.0
 10
278.6500026430111
 20
141.6292534368149
 30
0.0
 10
278.6500026430111
 20
141.6688720348953
 30
0.0
 10
278.6500026430111
 20
141.6688720348953
 30
0.0
 10
278.6500026430111
 20
147.2823106185614
 30
0.0
 10
278.6500026430111
 20
147.2823106185614
 30
0.0
 10
278.6500026430111
 20
147.3443223372958
 30
0.0
 10
278.6668836108889
 20
147.3880750499585
 30
0.0
 10
278.7006455466443
 20
147.4135687565494
 30
0.0
 10
278.7344074823997
 20
147.4387179535917
 30
0.0
 10
278.7685139277037
 20
147.4514648068871
 30
0.0
 10
278.8022758634592
 20
147.4514648068871
 30
0.0
 10
278.8246689841133
 20
147.4514648068871
 30
0.0
 10
278.847406614316
 20
147.4473306923048
 30
0.0
 10
278.8701442445186
 20
147.4387179535917
 30
0.0
 10
278.8925373651727
 20
147.4304497244271
 30
0.0
 10
278.9121744094387
 20
147.414602285195
 30
0.0
 10
278.9293998868649
 20
147.3922091645408
 30
0.0
 10
278.9293998868649
 20
147.3922091645408
 30
0.0
 10
282.8409613008176
 20
142.0581678247285
 30
0.0
 10
282.8409613008176
 20
142.0581678247285
 30
0.0
 10
282.8409613008176
 20
142.0581678247285
 30
0.0
 10
282.7730929197581
 20
141.8890136364027
 30
0.0
 10
282.7730929197581
 20
141.8890136364027
 30
0.0
 10
282.7730929197581
 20
141.8890136364027
 30
0.0
 10
282.7730929197581
 20
147.290578847726
 30
0.0
 10
282.7730929197581
 20
147.290578847726
 30
0.0
 10
282.7730929197581
 20
147.3357095985827
 30
0.0
 10
282.7899738876359
 20
147.373950158469
 30
0.0
 10
282.8240803329399
 20
147.4049560178363
 30
0.0
 10
282.8578422686953
 20
147.4359618772035
 30
0.0
 10
282.8943602808389
 20
147.4514648068871
 30
0.0
 10
282.9339788789193
 20
147.4514648068871
 30
0.0
  0
HATCH
  5
98
330
8B
100
AcDbEntity
  8
0
 62
    18
420
        0
440
 33554687
100
AcDbHatch
 10
0.0
 20
0.0
 30
0.0
210
0.0
220
0.0
230
1.0
  2
SOLID
 70
     1
 71
     1
 91
        1
 92
        1
 93
        1
 72
     4
 94
        3
 73
     0
 74
     0
 95
       77
 96
       73
 40
0.0
 40
0.0
 40
0.0
 40
0.0
 40
1.0
 40
1.0
 40
1.0
 40
2.0
 40
2.0
 40
2.0
 40
3.0
 40
3.0
 40
3.0
 40
4.0
 40
4.0
 40
4.0
 40
5.0
 40
5.0
 40
5.0
 40
6.0
 40
6.0
 40
6.0
 40
7.0
 40
7.0
 40
7.0
 40
8.0
 40
8.0
 40
8.0
 40
9.0
 40
9.0
 40
9.0
 40
10.0
 40
10.0
 40
10.0
 40
11.0
 40
11.0
 40
11.0
 40
12.0
 40
12.0
 40
12.0
 40
13.0
 40
13.0
 40
13.0
 40
14.0
 40
14.0
 40
14.0
 40
15.0
 40
15.0
 40
15.0
 40
16.0
 40
16.0
 40
16.0
 40
17.0
 40
17.0
 40
17.0
 40
18.0
 40
18.0
 40
18.0
 40
19.0
 40
19.0
 40
19.0
 40
20.0
 40
20.0
 40
20.0
 40
21.0
 40
21.0
 40
21.0
 40
22.0
 40
22.0
 40
22.0
 40
23.0
 40
23.0
 40
23.0
 40
24.0
 40
24.0
 40
24.0
 40
24.0
 10
282.9339788789193
 20
147.4514648068871
 10
282.984966292101
 20
147.4514648068871
 10
283.0242403806328
 20
147.4359618772035
 10
283.0524901636119
 20
147.4049560178363
 10
283.0807399465909
 20
147.373950158469
 10
283.0948648380805
 20
147.3357095985827
 10
283.0948648380805
 20
147.290578847726
 10
283.0948648380805
 20
147.290578847726
 10
283.0948648380805
 20
141.7112467093638
 10
283.0948648380805
 20
141.7112467093638
 10
283.0948648380805
 20
141.6488904810808
 10
283.0766058320086
 20
141.60238169203
 10
283.0397433103165
 20
141.5713758326627
 10
283.0032252981728
 20
141.5403699732954
 10
282.9622286618983
 20
141.5248670436118
 10
282.9170979110416
 20
141.5248670436118
 10
282.8943602808389
 20
141.5248670436118
 10
282.8705891219907
 20
141.5303791963882
 10
282.8450954153998
 20
141.5417480114895
 10
282.819601708809
 20
141.5531168265909
 10
282.798586626349
 20
141.5699977944686
 10
282.7817056584713
 20
141.5927354246712
 10
282.7817056584713
 20
141.5927354246712
 10
278.8529187670923
 20
146.960538700239
 10
278.8529187670923
 20
146.960538700239
 10
278.8529187670923
 20
146.960538700239
 10
278.9714300517849
 20
147.0197943425853
 10
278.9714300517849
 20
147.0197943425853
 10
278.9714300517849
 20
147.0197943425853
 10
278.9714300517849
 20
141.6688720348953
 10
278.9714300517849
 20
141.6688720348953
 10
278.9714300517849
 20
141.6292534368149
 10
278.9559271221013
 20
141.5954915010594
 10
278.9249212627341
 20
141.5672417180804
 10
278.8939154033668
 20
141.5389919351014
 10
278.8556748434805
 20
141.5248670436118
 10
278.8108886021723
 20
141.5248670436118
 10
278.7599011889906
 20
141.5248670436118
 10
278.7202825909103
 20
141.5389919351014
 10
278.6920328079312
 20
141.5672417180804
 10
278.6637830249521
 20
141.5954915010594
 10
278.6500026430111
 20
141.6292534368149
 10
278.6500026430111
 20
141.6688720348953
 10
278.6500026430111
 20
141.6688720348953
 10
278.6500026430111
 20
147.2823106185614
 10
278.6500026430111
 20
147.2823106185614
 10
278.6500026430111
 20
147.3443223372958
 10
278.6668836108889
 20
147.3880750499585
 10
278.7006455466443
 20
147.4135687565494
 10
278.7344074823997
 20
147.4387179535917
 10
278.7685139277037
 20
147.4514648068871
 10
278.8022758634592
 20
147.4514648068871
 10
278.8246689841133
 20
147.4514648068871
 10
278.847406614316
 20
147.4473306923048
 10
278.8701442445186
 20
147.4387179535917
 10
278.8925373651727
 20
147.4304497244271
 10
278.9121744094387
 20
147.414602285195
 10
278.9293998868649
 20
147.3922091645408
 10
278.9293998868649
 20
147.3922091645408
 10
282.8409613008176
 20
142.0581678247285
 10
282.8409613008176
 20
142.0581678247285
 10
282.8409613008176
 20
142.0581678247285
 10
282.7730929197581
 20
141.8890136364027
 10
282.7730929197581
 20
141.8890136364027
 10
282.7730929197581
 20
141.8890136364027
 10
282.7730929197581
 20
147.290578847726
 10
282.7730929197581
 20
147.290578847726
 10
282.7730929197581
 20
147.3357095985827
 10
282.7899738876359
 20
147.373950158469
 10
282.8240803329399
 20
147.4049560178363
 10
282.8578422686953
 20
147.4359618772035
 10
282.8943602808389
 20
147.4514648068871
 10
282.9339788789193
 20
147.4514648068871
 97
        0
 97
        1
330
97
 75
     2
 76
     1
 98
        1
 10
0.0
 20
0.0
450
        0
451
        0
460
0.0
461
0.0
452
        0
462
0.0
453
        0
470

  0
SPLINE
  5
99
330
8B
100
AcDbEntity
  8
0
100
AcDbSpline
210
0.0
220
0.0
230
1.0
 70
     9
 71
     3
 72
    26
 73
    22
 74
     0
 42
0.0000000001
 43
0.0000000001
 40
0.0
 40
0.0
 40
0.0
 40
0.0
 40
1.0
 40
1.0
 40
1.0
 40
2.0
 40
2.0
 40
2.0
 40
3.0
 40
3.0
 40
3.0
 40
4.0
 40
4.0
 40
4.0
 40
5.0
 40
5.0
 40
5.0
 40
6.0
 40
6.0
 40
6.0
 40
7.0
 40
7.0
 40
7.0
 40
7.0
 10
286.4645127322033
 20
141.5248670436118
 30
0.0
 10
286.4135253190216
 20
141.5248670436118
 30
0.0
 10
286.3725286827472
 20
141.5417480114895
 30
0.0
 10
286.3415228233799
 20
141.575509947245
 30
0.0
 10
286.3105169640127
 20
141.609616392549
 30
0.0
 10
286.295014034329
 20
141.6488904810808
 30
0.0
 10
286.295014034329
 20
141.6943657414861
 30
0.0
 10
286.295014034329
 20
141.6943657414861
 30
0.0
 10
286.295014034329
 20
147.2482041732574
 30
0.0
 10
286.295014034329
 20
147.2482041732574
 30
0.0
 10
286.295014034329
 20
147.2482041732574
 30
0.0
 10
286.6336669205291
 20
147.2482041732574
 30
0.0
 10
286.6336669205291
 20
147.2482041732574
 30
0.0
 10
286.6336669205291
 20
147.2482041732574
 30
0.0
 10
286.6336669205291
 20
141.6943657414861
 30
0.0
 10
286.6336669205291
 20
141.6943657414861
 30
0.0
 10
286.6336669205291
 20
141.6488904810808
 30
0.0
 10
286.6167859526513
 20
141.609616392549
 30
0.0
 10
286.5830240168959
 20
141.575509947245
 30
0.0
 10
286.548917571592
 20
141.5417480114895
 30
0.0
 10
286.5096434830601
 20
141.5248670436118
 30
0.0
 10
286.4645127322033
 20
141.5248670436118
 30
0.0
  0
SPLINE
  5
9A
330
8B
100
AcDbEntity
  8
0
100
AcDbSpline
210
0.0
220
0.0
230
1.0
 70
     9
 71
     3
 72
    35
 73
    31
 74
     0
 42
0.0000000001
 43
0.0000000001
 40
0.0
 40
0.0
 40
0.0
 40
0.0
 40
1.0
 40
1.0
 40
1.0
 40
2.0
 40
2.0
 40
2.0
 40
3.0
 40
3.0
 40
3.0
 40
4.0
 40
4.0
 40
4.0
 40
5.0
 40
5.0
 40
5.0
 40
6.0
 40
6.0
 40
6.0
 40
7.0
 40
7.0
 40
7.0
 40
8.0
 40
8.0
 40
8.0
 40
9.0
 40
9.0
 40
9.0
 40
10.0
 40
10.0
 40
10.0
 40
10.0
 10
284.4071017084122
 20
147.1296928885648
 30
0.0
 10
284.3616264480068
 20
147.1296928885648
 30
0.0
 10
284.322352359475
 20
147.1451958182484
 30
0.0
 10
284.2885904237196
 20
147.1762016776156
 30
0.0
 10
284.2544839784156
 20
147.2072075369829
 30
0.0
 10
284.2376030105378
 20
147.2454480968692
 30
0.0
 10
284.2376030105378
 20
147.290578847726
 30
0.0
 10
284.2376030105378
 20
147.3357095985827
 30
0.0
 10
284.2544839784156
 20
147.373950158469
 30
0.0
 10
284.2885904237196
 20
147.4049560178363
 30
0.0
 10
284.322352359475
 20
147.4359618772035
 30
0.0
 10
284.3616264480068
 20
147.4514648068871
 30
0.0
 10
284.4071017084122
 20
147.4514648068871
 30
0.0
 10
284.4071017084122
 20
147.4514648068871
 30
0.0
 10
288.5219237559945
 20
147.4514648068871
 30
0.0
 10
288.5219237559945
 20
147.4514648068871
 30
0.0
 10
288.5670545068513
 20
147.4514648068871
 30
0.0
 10
288.6063285953832
 20
147.4359618772035
 30
0.0
 10
288.6404350406871
 20
147.4049560178363
 30
0.0
 10
288.6741969764426
 20
147.373950158469
 30
0.0
 10
288.6910779443203
 20
147.3357095985827
 30
0.0
 10
288.6910779443203
 20
147.290578847726
 30
0.0
 10
288.6910779443203
 20
147.2399359440928
 30
0.0
 10
288.6741969764426
 20
147.2003173460124
 30
0.0
 10
288.6404350406871
 20
147.1720675630334
 30
0.0
 10
288.6063285953832
 20
147.1438177800543
 30
0.0
 10
288.5670545068513
 20
147.1296928885648
 30
0.0
 10
288.5219237559945
 20
147.1296928885648
 30
0.0
 10
288.5219237559945
 20
147.1296928885648
 30
0.0
 10
284.4071017084122
 20
147.1296928885648
 30
0.0
 10
284.4071017084122
 20
147.1296928885648
 30
0.0
  0
HATCH
  5
9B
330
8B
100
AcDbEntity
  8
0
 62
    18
420
        0
440
 33554687
100
AcDbHatch
 10
0.0
 20
0.0
 30
0.0
210
0.0
220
0.0
230
1.0
  2
SOLID
 70
     1
 71
     1
 91
        2
 92
        1
 93
        1
 72
     4
 94
        3
 73
     0
 74
     0
 95
       26
 96
       22
 40
0.0
 40
0.0
 40
0.0
 40
0.0
 40
1.0
 40
1.0
 40
1.0
 40
2.0
 40
2.0
 40
2.0
 40
3.0
 40
3.0
 40
3.0
 40
4.0
 40
4.0
 40
4.0
 40
5.0
 40
5.0
 40
5.0
 40
6.0
 40
6.0
 40
6.0
 40
7.0
 40
7.0
 40
7.0
 40
7.0
 10
286.4645127322033
 20
141.5248670436118
 10
286.4135253190216
 20
141.5248670436118
 10
286.3725286827472
 20
141.5417480114895
 10
286.3415228233799
 20
141.575509947245
 10
286.3105169640127
 20
141.609616392549
 10
286.295014034329
 20
141.6488904810808
 10
286.295014034329
 20
141.6943657414861
 10
286.295014034329
 20
141.6943657414861
 10
286.295014034329
 20
147.2482041732574
 10
286.295014034329
 20
147.2482041732574
 10
286.295014034329
 20
147.2482041732574
 10
286.6336669205291
 20
147.2482041732574
 10
286.6336669205291
 20
147.2482041732574
 10
286.6336669205291
 20
147.2482041732574
 10
286.6336669205291
 20
141.6943657414861
 10
286.6336669205291
 20
141.6943657414861
 10
286.6336669205291
 20
141.6488904810808
 10
286.6167859526513
 20
141.609616392549
 10
286.5830240168959
 20
141.575509947245
 10
286.548917571592
 20
141.5417480114895
 10
286.5096434830601
 20
141.5248670436118
 10
286.4645127322033
 20
141.5248670436118
 97
        0
 97
        1
330
99
 92
        1
 93
        1
 72
     4
 94
        3
 73
     0
 74
     0
 95
       35
 96
       31
 40
0.0
 40
0.0
 40
0.0
 40
0.0
 40
1.0
 40
1.0
 40
1.0
 40
2.0
 40
2.0
 40
2.0
 40
3.0
 40
3.0
 40
3.0
 40
4.0
 40
4.0
 40
4.0
 40
5.0
 40
5.0
 40
5.0
 40
6.0
 40
6.0
 40
6.0
 40
7.0
 40
7.0
 40
7.0
 40
8.0
 40
8.0
 40
8.0
 40
9.0
 40
9.0
 40
9.0
 40
10.0
 40
10.0
 40
10.0
 40
10.0
 10
284.4071017084122
 20
147.1296928885648
 10
284.3616264480068
 20
147.1296928885648
 10
284.322352359475
 20
147.1451958182484
 10
284.2885904237196
 20
147.1762016776156
 10
284.2544839784156
 20
147.2072075369829
 10
284.2376030105378
 20
147.2454480968692
 10
284.2376030105378
 20
147.290578847726
 10
284.2376030105378
 20
147.3357095985827
 10
284.2544839784156
 20
147.373950158469
 10
284.2885904237196
 20
147.4049560178363
 10
284.322352359475
 20
147.4359618772035
 10
284.3616264480068
 20
147.4514648068871
 10
284.4071017084122
 20
147.4514648068871
 10
284.4071017084122
 20
147.4514648068871
 10
288.5219237559945
 20
147.4514648068871
 10
288.5219237559945
 20
147.4514648068871
 10
288.5670545068513
 20
147.4514648068871
 10
288.6063285953832
 20
147.4359618772035
 10
288.6404350406871
 20
147.4049560178363
 10
288.6741969764426
 20
147.373950158469
 10
288.6910779443203
 20
147.3357095985827
 10
288.6910779443203
 20
147.290578847726
 10
288.6910779443203
 20
147.2399359440928
 10
288.6741969764426
 20
147.2003173460124
 10
288.6404350406871
 20
147.1720675630334
 10
288.6063285953832
 20
147.1438177800543
 10
288.5670545068513
 20
147.1296928885648
 10
288.5219237559945
 20
147.1296928885648
 10
288.5219237559945
 20
147.1296928885648
 10
284.4071017084122
 20
147.1296928885648
 10
284.4071017084122
 20
147.1296928885648
 97
        0
 97
        1
330
9A
 75
     2
 76
     1
 98
        1
 10
0.0
 20
0.0
450
        0
451
        0
460
0.0
461
0.0
452
        0
462
0.0
453
        0
470

  0
ENDBLK
  5
8E
330
8B
100
AcDbEntity
  8
0
100
AcDbBlockEnd
  0
ENDSEC
  0
SECTION
  2
ENTITIES
  0
SPLINE
  5
78
330
70
100
AcDbEntity
  8
0
  6
AI-Linetype-0
 62
    18
420
        0
370
    25
100
AcDbSpline
210
0.0
220
0.0
230
1.0
 70
     9
 71
     3
 72
    29
 73
    25
 74
     0
 42
0.0000000001
 43
0.0000000001
 40
0.0
 40
0.0
 40
0.0
 40
0.0
 40
1.0
 40
1.0
 40
1.0
 40
2.0
 40
2.0
 40
2.0
 40
3.0
 40
3.0
 40
3.0
 40
4.0
 40
4.0
 40
4.0
 40
5.0
 40
5.0
 40
5.0
 40
6.0
 40
6.0
 40
6.0
 40
7.0
 40
7.0
 40
7.0
 40
8.0
 40
8.0
 40
8.0
 40
8.0
 10
-72.87222224850403
 20
328.6958332961593
 30
0.0
 10
-72.87222224850403
 20
328.6958332961593
 30
0.0
 10
283.1277777514957
 20
328.6958332961593
 30
0.0
 10
283.1277777514957
 20
328.6958332961593
 30
0.0
 10
289.7551947494653
 20
328.6958332961593
 30
0.0
 10
295.1277777514961
 20
323.3232502941287
 30
0.0
 10
295.1277777514961
 20
316.6958332961592
 30
0.0
 10
295.1277777514961
 20
316.6958332961592
 30
0.0
 10
295.1277777514955
 20
-19.30416670384077
 30
0.0
 10
295.1277777514955
 20
-19.30416670384077
 30
0.0
 10
295.1277777514955
 20
-25.93158370181031
 30
0.0
 10
289.7551947494653
 20
-31.30416670384056
 30
0.0
 10
283.1277777514957
 20
-31.30416670384056
 30
0.0
 10
283.1277777514957
 20
-31.30416670384056
 30
0.0
 10
-72.87222224850403
 20
-31.30416670384056
 30
0.0
 10
-72.87222224850403
 20
-31.30416670384056
 30
0.0
 10
-79.49963924647356
 20
-31.30416670384056
 30
0.0
 10
-84.87222224850412
 20
-25.93158370181031
 30
0.0
 10
-84.87222224850412
 20
-19.30416670384077
 30
0.0
 10
-84.87222224850412
 20
-19.30416670384077
 30
0.0
 10
-84.87222224850381
 20
316.6958332961592
 30
0.0
 10
-84.87222224850381
 20
316.6958332961592
 30
0.0
 10
-84.87222224850412
 20
323.3232502941287
 30
0.0
 10
-79.49963924647356
 20
328.6958332961593
 30
0.0
 10
-72.87222224850403
 20
328.6958332961593
 30
0.0
  0
CIRCLE
  5
7A
330
70
100
AcDbEntity
  8
0
 62
    18
420
        0
370
    25
100
AcDbCircle
 10
105.1277777514958
 20
148.6958332961594
 30
0.0
 40
150.0000000000001
  0
LINE
  5
7B
330
70
100
AcDbEntity
  8
0
 62
    18
420
        0
370
    25
100
AcDbLine
 10
-72.87222224850371
 20
-16.00416670384033
 30
0.0
 11
-72.87222224850371
 21
-22.60416670384057
 31
0.0
  0
LINE
  5
7C
330
70
100
AcDbEntity
  8
0
 62
    18
420
        0
370
    25
100
AcDbLine
 10
-69.5722222485039
 20
-19.30416670384077
 30
0.0
 11
-76.17222224850383
 21
-19.30416670384077
 31
0.0
  0
LINE
  5
7D
330
70
100
AcDbEntity
  8
0
 62
    18
420
        0
370
    25
100
AcDbLine
 10
105.1277777514958
 20
-16.00416670384033
 30
0.0
 11
105.1277777514958
 21
-22.60416670384057
 31
0.0
  0
LINE
  5
7E
330
70
100
AcDbEntity
  8
0
 62
    18
420
        0
370
    25
100
AcDbLine
 10
108.4277777514963
 20
-19.30416670384077
 30
0.0
 11
101.827777751496
 21
-19.30416670384077
 31
0.0
  0
LINE
  5
7F
330
70
100
AcDbEntity
  8
0
 62
    18
420
        0
370
    25
100
AcDbLine
 10
283.1277777514957
 20
-16.00416670384033
 30
0.0
 11
283.1277777514957
 21
-22.60416670384057
 31
0.0
  0
LINE
  5
80
330
70
100
AcDbEntity
  8
0
 62
    18
420
        0
370
    25
100
AcDbLine
 10
279.8277777514959
 20
-19.30416670384013
 30
0.0
 11
286.4277777514961
 21
-19.30416670384013
 31
0.0
  0
LINE
  5
81
330
70
100
AcDbEntity
  8
0
 62
    18
420
        0
370
    25
100
AcDbLine
 10
283.1277777514957
 20
319.9958332961597
 30
0.0
 11
283.1277777514957
 21
313.3958332961598
 31
0.0
  0
LINE
  5
82
330
70
100
AcDbEntity
  8
0
 62
    18
420
        0
370
    25
100
AcDbLine
 10
286.4277777514961
 20
316.6958332961595
 30
0.0
 11
279.8277777514959
 21
316.6958332961595
 31
0.0
  0
LINE
  5
83
330
70
100
AcDbEntity
  8
0
 62
    18
420
        0
370
    25
100
AcDbLine
 10
108.4277777514963
 20
316.6958332961595
 30
0.0
 11
101.827777751496
 21
316.6958332961595
 31
0.0
  0
LINE
  5
84
330
70
100
AcDbEntity
  8
0
 62
    18
420
        0
370
    25
100
AcDbLine
 10
105.1277777514958
 20
319.9958332961597
 30
0.0
 11
105.1277777514958
 21
313.3958332961598
 31
0.0
  0
LINE
  5
85
330
70
100
AcDbEntity
  8
0
 62
    18
420
        0
370
    25
100
AcDbLine
 10
-76.1688113948792
 20
316.6958332961595
 30
0.0
 11
-69.57563310212854
 21
316.6958332961595
 31
0.0
  0
LINE
  5
86
330
70
100
AcDbEntity
  8
0
 62
    18
420
        0
370
    25
100
AcDbLine
 10
-72.87222224850403
 20
319.9958332961597
 30
0.0
 11
-72.87222224850403
 21
313.3958332961594
 31
0.0
  0
INSERT
  5
88
330
70
100
AcDbEntity
  8
0
100
AcDbBlockReference
  2
Block_0
 10
0.0
 20
0.0
 30
0.0
  0
ENDSEC
  0
SECTION
  2
OBJECTS
  0
DICTIONARY
  5
C
330
0
100
AcDbDictionary
281
     1
  3
ACAD_COLOR
350
63
  3
ACAD_DETAILVIEWSTYLE
350
6A
  3
ACAD_GROUP
350
D
  3
ACAD_LAYOUT
350
62
  3
ACAD_MATERIAL
350
10
  3
ACAD_MLEADERSTYLE
350
66
  3
ACAD_MLINESTYLE
350
5F
  3
ACAD_PLOTSETTINGS
350
61
  3
ACAD_PLOTSTYLENAME
350
E
  3
ACAD_SCALELIST
350
42
  3
ACAD_SECTIONVIEWSTYLE
350
68
  3
ACAD_TABLESTYLE
350
64
  3
ACAD_VISUALSTYLE
350
29
  3
ACDB_RECOMPOSE_DATA
350
A4
  3
AcDbVariableDictionary
350
9C
  0
DICTIONARY
  5
63
102
{ACAD_REACTORS
330
C
102
}
330
C
100
AcDbDictionary
281
     1
  0
DICTIONARY
  5
6A
102
{ACAD_REACTORS
330
C
102
}
330
C
100
AcDbDictionary
281
     1
  3
Imperial24
350
6B
  0
DICTIONARY
  5
D
102
{ACAD_REACTORS
330
C
102
}
330
C
100
AcDbDictionary
281
     1
  0
DICTIONARY
  5
62
102
{ACAD_REACTORS
330
C
102
}
330
C
100
AcDbDictionary
281
     1
  3
Layout1
350
6F
  3
Layout2
350
77
  3
Model
350
73
  0
DICTIONARY
  5
10
102
{ACAD_REACTORS
330
C
102
}
330
C
100
AcDbDictionary
281
     1
  3
ByBlock
350
19
  3
ByLayer
350
11
  3
Global
350
21
  0
DICTIONARY
  5
66
102
{ACAD_REACTORS
330
C
102
}
330
C
100
AcDbDictionary
281
     1
  3
Standard
350
67
  0
DICTIONARY
  5
5F
102
{ACAD_REACTORS
330
C
102
}
330
C
100
AcDbDictionary
281
     1
  3
Standard
350
60
  0
DICTIONARY
  5
61
102
{ACAD_REACTORS
330
C
102
}
330
C
100
AcDbDictionary
281
     1
  0
ACDBDICTIONARYWDFLT
  5
E
102
{ACAD_REACTORS
330
C
102
}
330
C
100
AcDbDictionary
281
     1
  3
Normal
350
F
100
AcDbDictionaryWithDefault
340
F
  0
DICTIONARY
  5
42
102
{ACAD_REACTORS
330
C
102
}
330
C
100
AcDbDictionary
281
     1
  3
A0
350
43
  3
A1
350
44
  3
A2
350
45
  3
A3
350
46
  3
A4
350
47
  3
A5
350
48
  3
A6
350
49
  3
A7
350
4A
  3
A8
350
4B
  3
A9
350
4C
  3
B0
350
4D
  3
B1
350
4E
  3
B2
350
4F
  3
B3
350
50
  3
B4
350
51
  3
B5
350
52
  3
B6
350
53
  0
DICTIONARY
  5
68
102
{ACAD_REACTORS
330
C
102
}
330
C
100
AcDbDictionary
281
     1
  3
Imperial24
350
69
  0
DICTIONARY
  5
64
102
{ACAD_REACTORS
330
C
102
}
330
C
100
AcDbDictionary
281
     1
  3
Standard
350
65
  0
DICTIONARY
  5
29
102
{ACAD_REACTORS
330
C
102
}
330
C
100
AcDbDictionary
281
     1
  3
2dWireframe
350
2F
  3
Basic
350
2E
  3
Brighten
350
35
  3
ColorChange
350
39
  3
Conceptual
350
32
  3
Dim
350
34
  3
EdgeColorOff
350
41
  3
Facepattern
350
38
  3
Flat
350
2A
  3
FlatWithEdges
350
2B
  3
Gouraud
350
2C
  3
GouraudWithEdges
350
2D
  3
Hidden
350
31
  3
JitterOff
350
3F
  3
Linepattern
350
37
  3
OverhangOff
350
40
  3
Realistic
350
33
  3
Shaded
350
3E
  3
Shaded with edges
350
3D
  3
Shades of Gray
350
3A
  3
Sketchy
350
3B
  3
Thicken
350
36
  3
Wireframe
350
30
  3
X-Ray
350
3C
  0
XRECORD
  5
A4
102
{ACAD_REACTORS
330
C
102
}
330
C
100
AcDbXrecord
280
     1
 90
        1
330
65
  0
DICTIONARY
  5
9C
102
{ACAD_REACTORS
330
C
102
}
330
C
100
AcDbDictionary
281
     1
  3
CANNOSCALE
350
A1
  3
CMLEADERSTYLE
350
9E
  3
CTABLESTYLE
350
9D
  3
CVIEWDETAILSTYLE
350
9F
  3
CVIEWSECTIONSTYLE
350
A0
  0
ACDBDETAILVIEWSTYLE
  5
6B
102
{ACAD_REACTORS
330
6A
102
}
330
6A
100
AcDbModelDocViewStyle
 70
     0
  3
Imperial24
290
     1
300
Imperial24
 90
        0
100
AcDbDetailViewStyle
 70
     0
 71
     0
 90
        3
 71
     1
340
55
 62
   256
 40
0.24
340
0
 62
   256
 40
0.24
300

 40
0.36
280
     3
 71
     2
340
5D
 90
       25
 62
   256
 71
     3
340
55
 62
   256
 40
0.24
 90
        1
 40
0.75
 90
        1
300
%<\AcVar ViewType \f "%tc1">% %<\AcVar ViewDetailId>%\PSCALE %<\AcVar ViewScale \f "%sn">%
 71
     4
340
5D
 90
       25
 62
   256
340
5D
 90
       25
 62
   256
280
     0
  0
LAYOUT
  5
6F
102
{ACAD_REACTORS
330
62
102
}
330
62
100
AcDbPlotSettings
  1

  2

  4

  6

 40
0.0
 41
0.0
 42
0.0
 43
0.0
 44
0.0
 45
0.0
 46
0.0
 47
0.0
 48
0.0
 49
0.0
140
0.0
141
0.0
142
1.0
143
1.0
 70
   688
 72
     0
 73
     0
 74
     5
  7

 75
    16
147
1.0
 76
     0
 77
     2
 78
   300
148
0.0
149
0.0
100
AcDbLayout
  1
Layout1
 70
     1
 71
     1
 10
0.0
 20
0.0
 11
12.0
 21
9.0
 12
0.0
 22
0.0
 32
0.0
 14
0.0
 24
0.0
 34
0.0
 15
0.0
 25
0.0
 35
0.0
146
0.0
 13
0.0
 23
0.0
 33
0.0
 16
1.0
 26
0.0
 36
0.0
 17
0.0
 27
1.0
 37
0.0
 76
     0
330
6C
  0
LAYOUT
  5
77
102
{ACAD_REACTORS
330
62
102
}
330
62
100
AcDbPlotSettings
  1

  2

  4

  6

 40
0.0
 41
0.0
 42
0.0
 43
0.0
 44
0.0
 45
0.0
 46
0.0
 47
0.0
 48
0.0
 49
0.0
140
0.0
141
0.0
142
1.0
143
1.0
 70
   688
 72
     0
 73
     0
 74
     5
  7

 75
    16
147
1.0
 76
     0
 77
     2
 78
   300
148
0.0
149
0.0
100
AcDbLayout
  1
Layout2
 70
     1
 71
     2
 10
0.0
 20
0.0
 11
12.0
 21
9.0
 12
0.0
 22
0.0
 32
0.0
 14
0.0
 24
0.0
 34
0.0
 15
0.0
 25
0.0
 35
0.0
146
0.0
 13
0.0
 23
0.0
 33
0.0
 16
1.0
 26
0.0
 36
0.0
 17
0.0
 27
1.0
 37
0.0
 76
     0
330
74
  0
LAYOUT
  5
73
102
{ACAD_REACTORS
330
62
102
}
330
62
100
AcDbPlotSettings
  1

  2

  4

  6

 40
0.0
 41
0.0
 42
0.0
 43
0.0
 44
0.0
 45
0.0
 46
0.0
 47
0.0
 48
0.0
 49
0.0
140
0.0
141
0.0
142
1.0
143
1.0
 70
  1712
 72
     0
 73
     0
 74
     0
  7

 75
     0
147
1.0
 76
     0
 77
     2
 78
   300
148
0.0
149
0.0
100
AcDbLayout
  1
Model
 70
     1
 71
     0
 10
0.0
 20
0.0
 11
12.0
 21
9.0
 12
0.0
 22
0.0
 32
0.0
 14
0.0
 24
0.0
 34
0.0
 15
0.0
 25
0.0
 35
0.0
146
0.0
 13
0.0
 23
0.0
 33
0.0
 16
1.0
 26
0.0
 36
0.0
 17
0.0
 27
1.0
 37
0.0
 76
     0
330
70
  0
MATERIAL
  5
19
102
{ACAD_XDICTIONARY
360
1A
102
}
102
{ACAD_REACTORS
330
10
102
}
330
10
100
AcDbMaterial
  1
ByBlock
 72
     0
 43
0.0208333333333333
 43
0.0
 43
0.0
 43
0.0
 43
0.0
 43
0.0208333333333333
 43
0.0
 43
0.0
 43
0.0
 43
0.0
 43
1.0
 43
0.0
 43
0.0
 43
0.0
 43
0.0
 43
1.0
 77
     0
 47
0.0208333333333333
 47
0.0
 47
0.0
 47
0.0
 47
0.0
 47
0.0208333333333333
 47
0.0
 47
0.0
 47
0.0
 47
0.0
 47
1.0
 47
0.0
 47
0.0
 47
0.0
 47
0.0
 47
1.0
171
     0
 49
0.0208333333333333
 49
0.0
 49
0.0
 49
0.0
 49
0.0
 49
0.0208333333333333
 49
0.0
 49
0.0
 49
0.0
 49
0.0
 49
1.0
 49
0.0
 49
0.0
 49
0.0
 49
0.0
 49
1.0
175
     0
142
0.0208333333333333
142
0.0
142
0.0
142
0.0
142
0.0
142
0.0208333333333333
142
0.0
142
0.0
142
0.0
142
0.0
142
1.0
142
0.0
142
0.0
142
0.0
142
0.0
142
1.0
179
     0
144
0.0208333333333333
144
0.0
144
0.0
144
0.0
144
0.0
144
0.0208333333333333
144
0.0
144
0.0
144
0.0
144
0.0
144
1.0
144
0.0
144
0.0
144
0.0
144
0.0
144
1.0
147
0.0208333333333333
147
0.0
147
0.0
147
0.0
147
0.0
147
0.0208333333333333
147
0.0
147
0.0
147
0.0
147
0.0
147
1.0
147
0.0
147
0.0
147
0.0
147
0.0
147
1.0
  0
MATERIAL
  5
11
102
{ACAD_XDICTIONARY
360
12
102
}
102
{ACAD_REACTORS
330
10
102
}
330
10
100
AcDbMaterial
  1
ByLayer
 72
     0
 43
0.0208333333333333
 43
0.0
 43
0.0
 43
0.0
 43
0.0
 43
0.0208333333333333
 43
0.0
 43
0.0
 43
0.0
 43
0.0
 43
1.0
 43
0.0
 43
0.0
 43
0.0
 43
0.0
 43
1.0
 77
     0
 47
0.0208333333333333
 47
0.0
 47
0.0
 47
0.0
 47
0.0
 47
0.0208333333333333
 47
0.0
 47
0.0
 47
0.0
 47
0.0
 47
1.0
 47
0.0
 47
0.0
 47
0.0
 47
0.0
 47
1.0
171
     0
 49
0.0208333333333333
 49
0.0
 49
0.0
 49
0.0
 49
0.0
 49
0.0208333333333333
 49
0.0
 49
0.0
 49
0.0
 49
0.0
 49
1.0
 49
0.0
 49
0.0
 49
0.0
 49
0.0
 49
1.0
175
     0
142
0.0208333333333333
142
0.0
142
0.0
142
0.0
142
0.0
142
0.0208333333333333
142
0.0
142
0.0
142
0.0
142
0.0
142
1.0
142
0.0
142
0.0
142
0.0
142
0.0
142
1.0
179
     0
144
0.0208333333333333
144
0.0
144
0.0
144
0.0
144
0.0
144
0.0208333333333333
144
0.0
144
0.0
144
0.0
144
0.0
144
1.0
144
0.0
144
0.0
144
0.0
144
0.0
144
1.0
147
0.0208333333333333
147
0.0
147
0.0
147
0.0
147
0.0
147
0.0208333333333333
147
0.0
147
0.0
147
0.0
147
0.0
147
1.0
147
0.0
147
0.0
147
0.0
147
0.0
147
1.0
  0
MATERIAL
  5
21
102
{ACAD_XDICTIONARY
360
22
102
}
102
{ACAD_REACTORS
330
10
102
}
330
10
100
AcDbMaterial
  1
Global
 72
     0
 43
0.0208333333333333
 43
0.0
 43
0.0
 43
0.0
 43
0.0
 43
0.0208333333333333
 43
0.0
 43
0.0
 43
0.0
 43
0.0
 43
1.0
 43
0.0
 43
0.0
 43
0.0
 43
0.0
 43
1.0
 77
     0
 47
0.0208333333333333
 47
0.0
 47
0.0
 47
0.0
 47
0.0
 47
0.0208333333333333
 47
0.0
 47
0.0
 47
0.0
 47
0.0
 47
1.0
 47
0.0
 47
0.0
 47
0.0
 47
0.0
 47
1.0
171
     0
 49
0.0208333333333333
 49
0.0
 49
0.0
 49
0.0
 49
0.0
 49
0.0208333333333333
 49
0.0
 49
0.0
 49
0.0
 49
0.0
 49
1.0
 49
0.0
 49
0.0
 49
0.0
 49
0.0
 49
1.0
175
     0
142
0.0208333333333333
142
0.0
142
0.0
142
0.0
142
0.0
142
0.0208333333333333
142
0.0
142
0.0
142
0.0
142
0.0
142
1.0
142
0.0
142
0.0
142
0.0
142
0.0
142
1.0
179
     0
144
0.0208333333333333
144
0.0
144
0.0
144
0.0
144
0.0
144
0.0208333333333333
144
0.0
144
0.0
144
0.0
144
0.0
144
1.0
144
0.0
144
0.0
144
0.0
144
0.0
144
1.0
147
0.0208333333333333
147
0.0
147
0.0
147
0.0
147
0.0
147
0.0208333333333333
147
0.0
147
0.0
147
0.0
147
0.0
147
1.0
147
0.0
147
0.0
147
0.0
147
0.0
147
1.0
  0
MLEADERSTYLE
  5
67
102
{ACAD_REACTORS
330
66
102
}
330
66
100
AcDbMLeaderStyle
179
     2
170
     2
171
     1
172
     0
 90
        2
 40
0.0
 41
0.0
173
     1
 91
-1056964608
340
5B
 92
       -2
290
     1
 42
0.09
291
     1
 43
0.36
  3
Standard
 44
0.18
300

342
55
174
     1
178
     6
175
     1
176
     0
 93
-1056964608
 45
0.18
292
     0
297
     0
 46
0.18
 94
-1056964608
 47
1.0
 49
1.0
140
1.0
293
     1
141
0.0
294
     1
177
     0
142
1.0
295
     1
296
     0
143
0.125
271
     0
272
     9
273
     9
298
     1
  0
MLINESTYLE
  5
60
102
{ACAD_REACTORS
330
5F
102
}
330
5F
100
AcDbMlineStyle
  2
STANDARD
 70
     0
  3

 62
   256
 51
90.0
 52
90.0
 71
     2
 49
0.5
 62
   256
  6
BYLAYER
 49
-0.5
 62
   256
  6
BYLAYER
  0
ACDBPLACEHOLDER
  5
F
102
{ACAD_REACTORS
330
E
102
}
330
E
  0
SCALE
  5
43
102
{ACAD_REACTORS
330
42
102
}
330
42
100
AcDbScale
 70
     0
300
1:1
140
1.0
141
1.0
290
     1
  0
SCALE
  5
44
102
{ACAD_REACTORS
330
42
102
}
330
42
100
AcDbScale
 70
     0
300
1/128" = 1'-0"
140
0.0078125
141
12.0
290
     0
  0
SCALE
  5
45
102
{ACAD_REACTORS
330
42
102
}
330
42
100
AcDbScale
 70
     0
300
1/64" = 1'-0"
140
0.015625
141
12.0
290
     0
  0
SCALE
  5
46
102
{ACAD_REACTORS
330
42
102
}
330
42
100
AcDbScale
 70
     0
300
1/32" = 1'-0"
140
0.03125
141
12.0
290
     0
  0
SCALE
  5
47
102
{ACAD_REACTORS
330
42
102
}
330
42
100
AcDbScale
 70
     0
300
1/16" = 1'-0"
140
0.0625
141
12.0
290
     0
  0
SCALE
  5
48
102
{ACAD_REACTORS
330
42
102
}
330
42
100
AcDbScale
 70
     0
300
3/32" = 1'-0"
140
0.09375
141
12.0
290
     0
  0
SCALE
  5
49
102
{ACAD_REACTORS
330
42
102
}
330
42
100
AcDbScale
 70
     0
300
1/8" = 1'-0"
140
0.125
141
12.0
290
     0
  0
SCALE
  5
4A
102
{ACAD_REACTORS
330
42
102
}
330
42
100
AcDbScale
 70
     0
300
3/16" = 1'-0"
140
0.1875
141
12.0
290
     0
  0
SCALE
  5
4B
102
{ACAD_REACTORS
330
42
102
}
330
42
100
AcDbScale
 70
     0
300
1/4" = 1'-0"
140
0.25
141
12.0
290
     0
  0
SCALE
  5
4C
102
{ACAD_REACTORS
330
42
102
}
330
42
100
AcDbScale
 70
     0
300
3/8" = 1'-0"
140
0.375
141
12.0
290
     0
  0
SCALE
  5
4D
102
{ACAD_REACTORS
330
42
102
}
330
42
100
AcDbScale
 70
     0
300
1/2" = 1'-0"
140
0.5
141
12.0
290
     0
  0
SCALE
  5
4E
102
{ACAD_REACTORS
330
42
102
}
330
42
100
AcDbScale
 70
     0
300
3/4" = 1'-0"
140
0.75
141
12.0
290
     0
  0
SCALE
  5
4F
102
{ACAD_REACTORS
330
42
102
}
330
42
100
AcDbScale
 70
     0
300
1" = 1'-0"
140
1.0
141
12.0
290
     0
  0
SCALE
  5
50
102
{ACAD_REACTORS
330
42
102
}
330
42
100
AcDbScale
 70
     0
300
1-1/2" = 1'-0"
140
1.5
141
12.0
290
     0
  0
SCALE
  5
51
102
{ACAD_REACTORS
330
42
102
}
330
42
100
AcDbScale
 70
     0
300
3" = 1'-0"
140
3.0
141
12.0
290
     0
  0
SCALE
  5
52
102
{ACAD_REACTORS
330
42
102
}
330
42
100
AcDbScale
 70
     0
300
6" = 1'-0"
140
6.0
141
12.0
290
     0
  0
SCALE
  5
53
102
{ACAD_REACTORS
330
42
102
}
330
42
100
AcDbScale
 70
     0
300
1'-0" = 1'-0"
140
12.0
141
12.0
290
     0
  0
ACDBSECTIONVIEWSTYLE
  5
69
102
{ACAD_REACTORS
330
68
102
}
330
68
100
AcDbModelDocViewStyle
 70
     0
  3
Imperial24
290
     1
300
Imperial24
 90
        0
100
AcDbSectionViewStyle
 70
     0
 71
     0
 90
       78
 71
     1
340
55
 62
   256
 40
0.24
340
0
340
0
 62
   256
 40
0.24
300
I, O, Q, S, X, Z
 40
0.48
 90
        3
 40
0.18
 90
        1
 71
     2
340
5D
 90
       25
 62
   256
340
5D
 90
       50
 62
   256
 40
0.24
 40
0.0
 40
0.24
 71
     3
340
55
 62
   256
 40
0.24
 90
        1
 40
0.75
 90
        1
300
%<\AcVar ViewType \f "%tc1">% %<\AcVar ViewSectionStartId>%-%<\AcVar ViewSectionEndId>%\PSCALE %<\AcVar ViewScale \f "%sn">%
 71
     4
 62
   256
 62
   257
300
ANSI31
 40
1.0
 90
        0
290
     0
290
     0
 90
        6
 40
0.0
 40
1.570796326794896
 40
0.2617993877991494
 40
1.308996938995747
 40
-0.2617993877991494
 40
1.832595714594046
  0
TABLESTYLE
  5
65
102
{ACAD_XDICTIONARY
360
A2
102
}
102
{ACAD_REACTORS
330
64
102
}
330
64
100
AcDbTableStyle
280
     0
  3
Standard
 70
     0
 71
     0
 40
0.06
 41
0.06
280
     0
281
     0
  7
Standard
140
0.18
170
     2
 62
     0
 63
     7
283
     0
 90
      512
 91
        0
  1

274
    -2
284
     1
 64
     0
275
    -2
285
     1
 65
     0
276
    -2
286
     1
 66
     0
277
    -2
287
     1
 67
     0
278
    -2
288
     1
 68
     0
279
    -2
289
     1
 69
     0
  7
Standard
140
0.25
170
     5
 62
     0
 63
     7
283
     0
 90
      512
 91
        0
  1

274
    -2
284
     1
 64
     0
275
    -2
285
     1
 65
     0
276
    -2
286
     1
 66
     0
277
    -2
287
     1
 67
     0
278
    -2
288
     1
 68
     0
279
    -2
289
     1
 69
     0
  7
Standard
140
0.18
170
     5
 62
     0
 63
     7
283
     0
 90
      512
 91
        0
  1

274
    -2
284
     1
 64
     0
275
    -2
285
     1
 65
     0
276
    -2
286
     1
 66
     0
277
    -2
287
     1
 67
     0
278
    -2
288
     1
 68
     0
279
    -2
289
     1
 69
     0
  0
VISUALSTYLE
  5
2F
102
{ACAD_REACTORS
330
29
102
}
330
29
100
AcDbVisualStyle
  2
2dWireframe
 70
     4
177
     3
291
     0
 70
    58
 90
        0
176
     1
 90
        2
176
     1
 90
        0
176
     1
 90
        0
176
     1
 40
0.6
176
     1
 40
30.0
176
     1
 62
     7
420
 16777215
176
     1
 90
        1
176
     1
 90
        4
176
     1
 62
     7
176
     1
 62
   257
176
     1
 90
        1
176
     1
 90
        1
176
     1
 40
1.0
176
     1
 90
        0
176
     1
 62
   257
176
     1
 40
1.0
176
     1
 90
        1
176
     1
 90
        6
176
     1
 90
        2
176
     1
 62
     7
176
     1
 90
        5
176
     1
 90
        0
176
     1
 90
        0
176
     1
290
     0
176
     1
 90
        1
176
     1
 40
0.0
176
     1
 90
        0
176
     1
290
     1
176
     1
290
     1
176
     1
290
     0
176
     1
290
     0
176
     1
290
     0
176
     1
290
     0
176
     1
290
     0
176
     1
290
     0
176
     1
290
     0
176
     1
 90
       50
176
     1
 40
0.0
176
     1
 40
1.0
176
     1
 90
        0
176
     1
 62
    18
420
        0
176
     1
 90
       50
176
     1
 90
        3
176
     1
 62
     5
420
      255
176
     1
290
     0
176
     1
 90
       50
176
     1
 90
       50
176
     1
 90
       50
176
     1
290
     0
176
     1
 90
       50
176
     1
 62
   256
176
     0
 40
1.0
176
     0
 90
        2
176
     1
  1
strokes_ogs.tif
176
     1
290
     0
176
     1
 40
1.0
176
     1
 40
1.0
176
     1
  0
VISUALSTYLE
  5
2E
102
{ACAD_REACTORS
330
29
102
}
330
29
100
AcDbVisualStyle
  2
Basic
 70
     7
177
     3
291
     1
 70
    58
 90
        1
176
     1
 90
        0
176
     1
 90
        1
176
     1
 90
        0
176
     1
 40
0.6
176
     1
 40
30.0
176
     1
 62
     7
420
 16777215
176
     1
 90
        0
176
     1
 90
        4
176
     1
 62
     7
176
     1
 62
   257
176
     1
 90
        1
176
     1
 90
        1
176
     1
 40
1.0
176
     1
 90
        8
176
     1
 62
     7
176
     1
 40
1.0
176
     1
 90
        1
176
     1
 90
        6
176
     1
 90
        2
176
     1
 62
     7
176
     1
 90
        5
176
     1
 90
        0
176
     1
 90
        0
176
     1
290
     0
176
     1
 90
        1
176
     1
 40
0.0
176
     1
 90
        0
176
     1
290
     0
176
     1
290
     1
176
     1
290
     1
176
     1
290
     0
176
     1
290
     0
176
     1
290
     0
176
     1
290
     0
176
     1
290
     0
176
     1
290
     0
176
     1
 90
       50
176
     1
 40
0.0
176
     1
 40
1.0
176
     1
 90
        0
176
     1
 62
    18
420
        0
176
     1
 90
       50
176
     1
 90
        3
176
     1
 62
     5
420
      255
176
     1
290
     0
176
     1
 90
       50
176
     1
 90
       50
176
     1
 90
       50
176
     1
290
     0
176
     1
 90
       50
176
     1
 62
   256
176
     0
 40
1.0
176
     0
 90
        2
176
     1
  1
strokes_ogs.tif
176
     1
290
     0
176
     1
 40
1.0
176
     1
 40
1.0
176
     1
  0
VISUALSTYLE
  5
35
102
{ACAD_REACTORS
330
29
102
}
330
29
100
AcDbVisualStyle
  2
Brighten
 70
    12
177
     3
291
     1
 70
    58
 90
        2
176
     1
 90
        2
176
     1
 90
        0
176
     1
 90
        0
176
     1
 40
0.6
176
     1
 40
30.0
176
     1
 62
     7
420
 16777215
176
     1
 90
        1
176
     1
 90
        4
176
     1
 62
     7
176
     1
 62
   257
176
     1
 90
        1
176
     1
 90
        1
176
     1
 40
1.0
176
     1
 90
        8
176
     1
 62
     7
176
     1
 40
1.0
176
     1
 90
        1
176
     1
 90
        6
176
     1
 90
        2
176
     1
 62
     7
176
     1
 90
        5
176
     1
 90
        0
176
     1
 90
        0
176
     1
290
     0
176
     1
 90
        1
176
     1
 40
50.0
176
     1
 90
        0
176
     1
290
     0
176
     1
290
     1
176
     1
290
     1
176
     1
290
     0
176
     1
290
     0
176
     1
290
     0
176
     1
290
     0
176
     1
290
     0
176
     1
290
     0
176
     1
 90
       50
176
     1
 40
0.0
176
     1
 40
1.0
176
     1
 90
        0
176
     1
 62
    18
420
        0
176
     1
 90
       50
176
     1
 90
        3
176
     1
 62
     5
420
      255
176
     1
290
     0
176
     1
 90
       50
176
     1
 90
       50
176
     1
 90
       50
176
     1
290
     0
176
     1
 90
       50
176
     1
 62
   256
176
     0
 40
1.0
176
     0
 90
        2
176
     1
  1
strokes_ogs.tif
176
     1
290
     0
176
     1
 40
1.0
176
     1
 40
1.0
176
     1
  0
VISUALSTYLE
  5
39
102
{ACAD_REACTORS
330
29
102
}
330
29
100
AcDbVisualStyle
  2
ColorChange
 70
    16
177
     3
291
     1
 70
    58
 90
        2
176
     1
 90
        2
176
     1
 90
        3
176
     1
 90
        0
176
     1
 40
0.6
176
     1
 40
30.0
176
     1
 62
     8
420
  8421504
176
     1
 90
        1
176
     1
 90
        4
176
     1
 62
     7
176
     1
 62
   257
176
     1
 90
        1
176
     1
 90
        1
176
     1
 40
1.0
176
     1
 90
        8
176
     1
 62
     8
420
  8421504
176
     1
 40
1.0
176
     1
 90
        1
176
     1
 90
        6
176
     1
 90
        2
176
     1
 62
     7
176
     1
 90
        5
176
     1
 90
        0
176
     1
 90
        0
176
     1
290
     0
176
     1
 90
        1
176
     1
 40
0.0
176
     1
 90
        0
176
     1
290
     0
176
     1
290
     1
176
     1
290
     1
176
     1
290
     0
176
     1
290
     0
176
     1
290
     0
176
     1
290
     0
176
     1
290
     0
176
     1
290
     0
176
     1
 90
       50
176
     1
 40
0.0
176
     1
 40
1.0
176
     1
 90
        0
176
     1
 62
    18
420
        0
176
     1
 90
       50
176
     1
 90
        3
176
     1
 62
     5
420
      255
176
     1
290
     0
176
     1
 90
       50
176
     1
 90
       50
176
     1
 90
       50
176
     1
290
     0
176
     1
 90
       50
176
     1
 62
   256
176
     0
 40
1.0
176
     0
 90
        2
176
     1
  1
strokes_ogs.tif
176
     1
290
     0
176
     1
 40
1.0
176
     1
 40
1.0
176
     1
  0
VISUALSTYLE
  5
32
102
{ACAD_REACTORS
330
29
102
}
330
29
100
AcDbVisualStyle
  2
Conceptual
 70
     9
177
     3
291
     0
 70
    58
 90
        3
176
     1
 90
        2
176
     1
 90
        0
176
     1
 90
        0
176
     1
 40
0.6
176
     1
 40
30.0
176
     1
 62
     7
420
 16777215
176
     1
 90
        2
176
     1
 90
        2
176
     1
 62
     7
176
     1
 62
   257
176
     1
 90
        1
176
     1
 90
        1
176
     1
 40
179.0
176
     1
 90
        8
176
     1
 62
     7
176
     1
 40
1.0
176
     1
 90
        1
176
     1
 90
        6
176
     1
 90
        2
176
     1
 62
     7
176
     1
 90
        3
176
     1
 90
        0
176
     1
 90
        0
176
     1
290
     0
176
     1
 90
        1
176
     1
 40
0.0
176
     1
 90
        0
176
     1
290
     0
176
     1
290
     1
176
     1
290
     1
176
     1
290
     0
176
     1
290
     0
176
     1
290
     0
176
     1
290
     0
176
     1
290
     0
176
     1
290
     0
176
     1
 90
       50
176
     1
 40
0.0
176
     1
 40
1.0
176
     1
 90
        0
176
     1
 62
    18
420
        0
176
     1
 90
       50
176
     1
 90
        3
176
     1
 62
     5
420
      255
176
     1
290
     0
176
     1
 90
       50
176
     1
 90
       50
176
     1
 90
       50
176
     1
290
     0
176
     1
 90
       50
176
     1
 62
   256
176
     0
 40
1.0
176
     0
 90
        2
176
     1
  1
strokes_ogs.tif
176
     1
290
     0
176
     1
 40
1.0
176
     1
 40
1.0
176
     1
  0
VISUALSTYLE
  5
34
102
{ACAD_REACTORS
330
29
102
}
330
29
100
AcDbVisualStyle
  2
Dim
 70
    11
177
     3
291
     1
 70
    58
 90
        2
176
     1
 90
        2
176
     1
 90
        0
176
     1
 90
        0
176
     1
 40
0.6
176
     1
 40
30.0
176
     1
 62
     7
420
 16777215
176
     1
 90
        1
176
     1
 90
        4
176
     1
 62
     7
176
     1
 62
   257
176
     1
 90
        1
176
     1
 90
        1
176
     1
 40
1.0
176
     1
 90
        8
176
     1
 62
     7
176
     1
 40
1.0
176
     1
 90
        1
176
     1
 90
        6
176
     1
 90
        2
176
     1
 62
     7
176
     1
 90
        5
176
     1
 90
        0
176
     1
 90
        0
176
     1
290
     0
176
     1
 90
        1
176
     1
 40
-50.0
176
     1
 90
        0
176
     1
290
     0
176
     1
290
     1
176
     1
290
     1
176
     1
290
     0
176
     1
290
     0
176
     1
290
     0
176
     1
290
     0
176
     1
290
     0
176
     1
290
     0
176
     1
 90
       50
176
     1
 40
0.0
176
     1
 40
1.0
176
     1
 90
        0
176
     1
 62
    18
420
        0
176
     1
 90
       50
176
     1
 90
        3
176
     1
 62
     5
420
      255
176
     1
290
     0
176
     1
 90
       50
176
     1
 90
       50
176
     1
 90
       50
176
     1
290
     0
176
     1
 90
       50
176
     1
 62
   256
176
     0
 40
1.0
176
     0
 90
        2
176
     1
  1
strokes_ogs.tif
176
     1
290
     0
176
     1
 40
1.0
176
     1
 40
1.0
176
     1
  0
VISUALSTYLE
  5
41
102
{ACAD_REACTORS
330
29
102
}
330
29
100
AcDbVisualStyle
  2
EdgeColorOff
 70
    22
177
     3
291
     1
 70
    58
 90
        2
176
     0
 90
        2
176
     0
 90
        0
176
     0
 90
        0
176
     0
 40
0.6
176
     0
 40
30.0
176
     0
 62
     7
420
 16777215
176
     0
 90
        1
176
     0
 90
        4
176
     0
 62
     7
176
     0
 62
   257
176
     0
 90
        1
176
     0
 90
        1
176
     0
 40
1.0
176
     0
 90
        8
176
     2
 62
     7
176
     0
 40
1.0
176
     0
 90
        1
176
     0
 90
        6
176
     0
 90
        2
176
     0
 62
     7
176
     0
 90
        5
176
     0
 90
        0
176
     0
 90
        0
176
     0
290
     0
176
     0
 90
        1
176
     0
 40
0.0
176
     0
 90
        0
176
     0
290
     0
176
     0
290
     1
176
     0
290
     1
176
     0
290
     0
176
     0
290
     0
176
     0
290
     0
176
     0
290
     0
176
     0
290
     0
176
     0
290
     0
176
     0
 90
       50
176
     0
 40
0.0
176
     0
 40
1.0
176
     0
 90
        0
176
     0
 62
    18
420
        0
176
     0
 90
       50
176
     0
 90
        3
176
     0
 62
     5
420
      255
176
     0
290
     0
176
     0
 90
       50
176
     0
 90
       50
176
     0
 90
       50
176
     0
290
     0
176
     0
 90
       50
176
     0
 62
   256
176
     0
 40
1.0
176
     0
 90
        2
176
     0
  1
strokes_ogs.tif
176
     0
290
     0
176
     0
 40
1.0
176
     0
 40
1.0
176
     0
  0
VISUALSTYLE
  5
38
102
{ACAD_REACTORS
330
29
102
}
330
29
100
AcDbVisualStyle
  2
Facepattern
 70
    15
177
     3
291
     1
 70
    58
 90
        2
176
     1
 90
        2
176
     1
 90
        0
176
     1
 90
        0
176
     1
 40
0.6
176
     1
 40
30.0
176
     1
 62
     7
420
 16777215
176
     1
 90
        1
176
     1
 90
        4
176
     1
 62
     7
176
     1
 62
   257
176
     1
 90
        1
176
     1
 90
        1
176
     1
 40
1.0
176
     1
 90
        8
176
     1
 62
     7
176
     1
 40
1.0
176
     1
 90
        1
176
     1
 90
        6
176
     1
 90
        2
176
     1
 62
     7
176
     1
 90
        5
176
     1
 90
        0
176
     1
 90
        0
176
     1
290
     0
176
     1
 90
        1
176
     1
 40
0.0
176
     1
 90
        0
176
     1
290
     0
176
     1
290
     1
176
     1
290
     1
176
     1
290
     0
176
     1
290
     0
176
     1
290
     0
176
     1
290
     0
176
     1
290
     0
176
     1
290
     0
176
     1
 90
       50
176
     1
 40
0.0
176
     1
 40
1.0
176
     1
 90
        0
176
     1
 62
    18
420
        0
176
     1
 90
       50
176
     1
 90
        3
176
     1
 62
     5
420
      255
176
     1
290
     0
176
     1
 90
       50
176
     1
 90
       50
176
     1
 90
       50
176
     1
290
     0
176
     1
 90
       50
176
     1
 62
   256
176
     0
 40
1.0
176
     0
 90
        2
176
     1
  1
strokes_ogs.tif
176
     1
290
     0
176
     1
 40
1.0
176
     1
 40
1.0
176
     1
  0
VISUALSTYLE
  5
2A
102
{ACAD_REACTORS
330
29
102
}
330
29
100
AcDbVisualStyle
  2
Flat
 70
     0
177
     3
291
     1
 70
    58
 90
        2
176
     1
 90
        1
176
     1
 90
        1
176
     1
 90
        2
176
     1
 40
0.6
176
     1
 40
30.0
176
     1
 62
     7
420
 16777215
176
     1
 90
        0
176
     1
 90
        0
176
     1
 62
     7
176
     1
 62
   257
176
     1
 90
        1
176
     1
 90
        1
176
     1
 40
1.0
176
     1
 90
        8
176
     1
 62
     7
176
     1
 40
1.0
176
     1
 90
        1
176
     1
 90
        6
176
     1
 90
        2
176
     1
 62
     7
176
     1
 90
        5
176
     1
 90
        0
176
     1
 90
        0
176
     1
290
     0
176
     1
 90
       13
176
     1
 40
0.0
176
     1
 90
        0
176
     1
290
     0
176
     1
290
     1
176
     1
290
     1
176
     1
290
     0
176
     1
290
     0
176
     1
290
     0
176
     1
290
     0
176
     1
290
     0
176
     1
290
     0
176
     1
 90
       50
176
     1
 40
0.0
176
     1
 40
1.0
176
     1
 90
        0
176
     1
 62
    18
420
        0
176
     1
 90
       50
176
     1
 90
        3
176
     1
 62
     5
420
      255
176
     1
290
     0
176
     1
 90
       50
176
     1
 90
       50
176
     1
 90
       50
176
     1
290
     0
176
     1
 90
       50
176
     1
 62
   256
176
     0
 40
1.0
176
     0
 90
        2
176
     1
  1
strokes_ogs.tif
176
     1
290
     0
176
     1
 40
1.0
176
     1
 40
1.0
176
     1
  0
VISUALSTYLE
  5
2B
102
{ACAD_REACTORS
330
29
102
}
330
29
100
AcDbVisualStyle
  2
FlatWithEdges
 70
     1
177
     3
291
     1
 70
    58
 90
        2
176
     1
 90
        1
176
     1
 90
        1
176
     1
 90
        2
176
     1
 40
0.6
176
     1
 40
30.0
176
     1
 62
     7
420
 16777215
176
     1
 90
        1
176
     1
 90
        0
176
     1
 62
     7
176
     1
 62
   257
176
     1
 90
        1
176
     1
 90
        1
176
     1
 40
1.0
176
     1
 90
        0
176
     1
 62
   257
176
     1
 40
1.0
176
     1
 90
        1
176
     1
 90
        6
176
     1
 90
        2
176
     1
 62
     7
176
     1
 90
        5
176
     1
 90
        0
176
     1
 90
        0
176
     1
290
     0
176
     1
 90
       13
176
     1
 40
0.0
176
     1
 90
        0
176
     1
290
     0
176
     1
290
     1
176
     1
290
     1
176
     1
290
     0
176
     1
290
     0
176
     1
290
     0
176
     1
290
     0
176
     1
290
     0
176
     1
290
     0
176
     1
 90
       50
176
     1
 40
0.0
176
     1
 40
1.0
176
     1
 90
        0
176
     1
 62
    18
420
        0
176
     1
 90
       50
176
     1
 90
        3
176
     1
 62
     5
420
      255
176
     1
290
     0
176
     1
 90
       50
176
     1
 90
       50
176
     1
 90
       50
176
     1
290
     0
176
     1
 90
       50
176
     1
 62
   256
176
     0
 40
1.0
176
     0
 90
        2
176
     1
  1
strokes_ogs.tif
176
     1
290
     0
176
     1
 40
1.0
176
     1
 40
1.0
176
     1
  0
VISUALSTYLE
  5
2C
102
{ACAD_REACTORS
330
29
102
}
330
29
100
AcDbVisualStyle
  2
Gouraud
 70
     2
177
     3
291
     1
 70
    58
 90
        2
176
     1
 90
        2
176
     1
 90
        1
176
     1
 90
        2
176
     1
 40
0.6
176
     1
 40
30.0
176
     1
 62
     7
420
 16777215
176
     1
 90
        0
176
     1
 90
        0
176
     1
 62
     7
176
     1
 62
   257
176
     1
 90
        1
176
     1
 90
        1
176
     1
 40
1.0
176
     1
 90
        0
176
     1
 62
     7
176
     1
 40
1.0
176
     1
 90
        1
176
     1
 90
        6
176
     1
 90
        2
176
     1
 62
     7
176
     1
 90
        5
176
     1
 90
        0
176
     1
 90
        0
176
     1
290
     0
176
     1
 90
       13
176
     1
 40
0.0
176
     1
 90
        0
176
     1
290
     0
176
     1
290
     1
176
     1
290
     1
176
     1
290
     0
176
     1
290
     0
176
     1
290
     0
176
     1
290
     0
176
     1
290
     0
176
     1
290
     0
176
     1
 90
       50
176
     1
 40
0.0
176
     1
 40
1.0
176
     1
 90
        0
176
     1
 62
    18
420
        0
176
     1
 90
       50
176
     1
 90
        3
176
     1
 62
     5
420
      255
176
     1
290
     0
176
     1
 90
       50
176
     1
 90
       50
176
     1
 90
       50
176
     1
290
     0
176
     1
 90
       50
176
     1
 62
   256
176
     0
 40
1.0
176
     0
 90
        2
176
     1
  1
strokes_ogs.tif
176
     1
290
     0
176
     1
 40
1.0
176
     1
 40
1.0
176
     1
  0
VISUALSTYLE
  5
2D
102
{ACAD_REACTORS
330
29
102
}
330
29
100
AcDbVisualStyle
  2
GouraudWithEdges
 70
     3
177
     3
291
     1
 70
    58
 90
        2
176
     1
 90
        2
176
     1
 90
        1
176
     1
 90
        2
176
     1
 40
0.6
176
     1
 40
30.0
176
     1
 62
     7
420
 16777215
176
     1
 90
        1
176
     1
 90
        0
176
     1
 62
     7
176
     1
 62
   257
176
     1
 90
        1
176
     1
 90
        1
176
     1
 40
1.0
176
     1
 90
        0
176
     1
 62
   257
176
     1
 40
1.0
176
     1
 90
        1
176
     1
 90
        6
176
     1
 90
        2
176
     1
 62
     7
176
     1
 90
        5
176
     1
 90
        0
176
     1
 90
        0
176
     1
290
     0
176
     1
 90
       13
176
     1
 40
0.0
176
     1
 90
        0
176
     1
290
     0
176
     1
290
     1
176
     1
290
     1
176
     1
290
     0
176
     1
290
     0
176
     1
290
     0
176
     1
290
     0
176
     1
290
     0
176
     1
290
     0
176
     1
 90
       50
176
     1
 40
0.0
176
     1
 40
1.0
176
     1
 90
        0
176
     1
 62
    18
420
        0
176
     1
 90
       50
176
     1
 90
        3
176
     1
 62
     5
420
      255
176
     1
290
     0
176
     1
 90
       50
176
     1
 90
       50
176
     1
 90
       50
176
     1
290
     0
176
     1
 90
       50
176
     1
 62
   256
176
     0
 40
1.0
176
     0
 90
        2
176
     1
  1
strokes_ogs.tif
176
     1
290
     0
176
     1
 40
1.0
176
     1
 40
1.0
176
     1
  0
VISUALSTYLE
  5
31
102
{ACAD_REACTORS
330
29
102
}
330
29
100
AcDbVisualStyle
  2
Hidden
 70
     6
177
     3
291
     0
 70
    58
 90
        1
176
     1
 90
        2
176
     1
 90
        2
176
     1
 90
        0
176
     1
 40
0.6
176
     1
 40
30.0
176
     1
 62
     7
420
 16777215
176
     1
 90
        2
176
     1
 90
        2
176
     1
 62
     7
176
     1
 62
   257
176
     1
 90
        2
176
     1
 90
        1
176
     1
 40
40.0
176
     1
 90
        0
176
     1
 62
   257
176
     1
 40
1.0
176
     1
 90
        1
176
     1
 90
        6
176
     1
 90
        2
176
     1
 62
     7
176
     1
 90
        3
176
     1
 90
        0
176
     1
 90
        0
176
     1
290
     0
176
     1
 90
        1
176
     1
 40
0.0
176
     1
 90
        0
176
     1
290
     0
176
     1
290
     1
176
     1
290
     1
176
     1
290
     0
176
     1
290
     0
176
     1
290
     0
176
     1
290
     0
176
     1
290
     0
176
     1
290
     0
176
     1
 90
       50
176
     1
 40
0.0
176
     1
 40
1.0
176
     1
 90
        0
176
     1
 62
    18
420
        0
176
     1
 90
       50
176
     1
 90
        3
176
     1
 62
     5
420
      255
176
     1
290
     0
176
     1
 90
       50
176
     1
 90
       50
176
     1
 90
       50
176
     1
290
     0
176
     1
 90
       50
176
     1
 62
   256
176
     0
 40
1.0
176
     0
 90
        2
176
     1
  1
strokes_ogs.tif
176
     1
290
     0
176
     1
 40
1.0
176
     1
 40
1.0
176
     1
  0
VISUALSTYLE
  5
3F
102
{ACAD_REACTORS
330
29
102
}
330
29
100
AcDbVisualStyle
  2
JitterOff
 70
    20
177
     3
291
     1
 70
    58
 90
        2
176
     0
 90
        2
176
     0
 90
        0
176
     0
 90
        0
176
     0
 40
0.6
176
     0
 40
30.0
176
     0
 62
     7
420
 16777215
176
     0
 90
        1
176
     0
 90
        4
176
     0
 62
     7
176
     0
 62
   257
176
     0
 90
        1
176
     0
 90
        1
176
     0
 40
1.0
176
     0
 90
       10
176
     2
 62
     7
176
     0
 40
1.0
176
     0
 90
        1
176
     0
 90
        6
176
     0
 90
        2
176
     0
 62
     7
176
     0
 90
        5
176
     0
 90
        0
176
     0
 90
        0
176
     0
290
     0
176
     0
 90
        1
176
     0
 40
0.0
176
     0
 90
        0
176
     0
290
     0
176
     0
290
     1
176
     0
290
     1
176
     0
290
     0
176
     0
290
     0
176
     0
290
     0
176
     0
290
     0
176
     0
290
     0
176
     0
290
     0
176
     0
 90
       50
176
     0
 40
0.0
176
     0
 40
1.0
176
     0
 90
        0
176
     0
 62
    18
420
        0
176
     0
 90
       50
176
     0
 90
        3
176
     0
 62
     5
420
      255
176
     0
290
     0
176
     0
 90
       50
176
     0
 90
       50
176
     0
 90
       50
176
     0
290
     0
176
     0
 90
       50
176
     0
 62
   256
176
     0
 40
1.0
176
     0
 90
        2
176
     0
  1
strokes_ogs.tif
176
     0
290
     0
176
     0
 40
1.0
176
     0
 40
1.0
176
     0
  0
VISUALSTYLE
  5
37
102
{ACAD_REACTORS
330
29
102
}
330
29
100
AcDbVisualStyle
  2
Linepattern
 70
    14
177
     3
291
     1
 70
    58
 90
        2
176
     1
 90
        2
176
     1
 90
        0
176
     1
 90
        0
176
     1
 40
0.6
176
     1
 40
30.0
176
     1
 62
     7
420
 16777215
176
     1
 90
        1
176
     1
 90
        4
176
     1
 62
     7
176
     1
 62
   257
176
     1
 90
        7
176
     1
 90
        7
176
     1
 40
1.0
176
     1
 90
        8
176
     1
 62
     7
176
     1
 40
1.0
176
     1
 90
        1
176
     1
 90
        6
176
     1
 90
        2
176
     1
 62
     7
176
     1
 90
        5
176
     1
 90
        0
176
     1
 90
        0
176
     1
290
     0
176
     1
 90
        1
176
     1
 40
0.0
176
     1
 90
        0
176
     1
290
     0
176
     1
290
     1
176
     1
290
     1
176
     1
290
     0
176
     1
290
     0
176
     1
290
     0
176
     1
290
     0
176
     1
290
     0
176
     1
290
     0
176
     1
 90
       50
176
     1
 40
0.0
176
     1
 40
1.0
176
     1
 90
        0
176
     1
 62
    18
420
        0
176
     1
 90
       50
176
     1
 90
        3
176
     1
 62
     5
420
      255
176
     1
290
     0
176
     1
 90
       50
176
     1
 90
       50
176
     1
 90
       50
176
     1
290
     0
176
     1
 90
       50
176
     1
 62
   256
176
     0
 40
1.0
176
     0
 90
        2
176
     1
  1
strokes_ogs.tif
176
     1
290
     0
176
     1
 40
1.0
176
     1
 40
1.0
176
     1
  0
VISUALSTYLE
  5
40
102
{ACAD_REACTORS
330
29
102
}
330
29
100
AcDbVisualStyle
  2
OverhangOff
 70
    21
177
     3
291
     1
 70
    58
 90
        2
176
     0
 90
        2
176
     0
 90
        0
176
     0
 90
        0
176
     0
 40
0.6
176
     0
 40
30.0
176
     0
 62
     7
420
 16777215
176
     0
 90
        1
176
     0
 90
        4
176
     0
 62
     7
176
     0
 62
   257
176
     0
 90
        1
176
     0
 90
        1
176
     0
 40
1.0
176
     0
 90
        9
176
     2
 62
     7
176
     0
 40
1.0
176
     0
 90
        1
176
     0
 90
        6
176
     0
 90
        2
176
     0
 62
     7
176
     0
 90
        5
176
     0
 90
        0
176
     0
 90
        0
176
     0
290
     0
176
     0
 90
        1
176
     0
 40
0.0
176
     0
 90
        0
176
     0
290
     0
176
     0
290
     1
176
     0
290
     1
176
     0
290
     0
176
     0
290
     0
176
     0
290
     0
176
     0
290
     0
176
     0
290
     0
176
     0
290
     0
176
     0
 90
       50
176
     0
 40
0.0
176
     0
 40
1.0
176
     0
 90
        0
176
     0
 62
    18
420
        0
176
     0
 90
       50
176
     0
 90
        3
176
     0
 62
     5
420
      255
176
     0
290
     0
176
     0
 90
       50
176
     0
 90
       50
176
     0
 90
       50
176
     0
290
     0
176
     0
 90
       50
176
     0
 62
   256
176
     0
 40
1.0
176
     0
 90
        2
176
     0
  1
strokes_ogs.tif
176
     0
290
     0
176
     0
 40
1.0
176
     0
 40
1.0
176
     0
  0
VISUALSTYLE
  5
33
102
{ACAD_REACTORS
330
29
102
}
330
29
100
AcDbVisualStyle
  2
Realistic
 70
     8
177
     3
291
     0
 70
    58
 90
        2
176
     1
 90
        3
176
     1
 90
        0
176
     1
 90
        2
176
     1
 40
0.6
176
     1
 40
30.0
176
     1
 62
     7
420
 16777215
176
     1
 90
        0
176
     1
 90
        0
176
     1
 62
     7
176
     1
 62
   257
176
     1
 90
        1
176
     1
 90
        1
176
     1
 40
1.0
176
     1
 90
        8
176
     1
 62
   257
176
     1
 40
1.0
176
     1
 90
        1
176
     1
 90
        6
176
     1
 90
        2
176
     1
 62
     7
176
     1
 90
        3
176
     1
 90
        0
176
     1
 90
        0
176
     1
290
     0
176
     1
 90
       13
176
     1
 40
0.0
176
     1
 90
        0
176
     1
290
     0
176
     1
290
     1
176
     1
290
     1
176
     1
290
     0
176
     1
290
     0
176
     1
290
     0
176
     1
290
     0
176
     1
290
     0
176
     1
290
     0
176
     1
 90
       50
176
     1
 40
0.0
176
     1
 40
1.0
176
     1
 90
        0
176
     1
 62
    18
420
        0
176
     1
 90
       50
176
     1
 90
        3
176
     1
 62
     5
420
      255
176
     1
290
     0
176
     1
 90
       50
176
     1
 90
       50
176
     1
 90
       50
176
     1
290
     0
176
     1
 90
       50
176
     1
 62
   256
176
     0
 40
1.0
176
     0
 90
        2
176
     1
  1
strokes_ogs.tif
176
     1
290
     0
176
     1
 40
1.0
176
     1
 40
1.0
176
     1
  0
VISUALSTYLE
  5
3E
102
{ACAD_REACTORS
330
29
102
}
330
29
100
AcDbVisualStyle
  2
Shaded
 70
    27
177
     3
291
     0
 70
    58
 90
        2
176
     1
 90
        2
176
     1
 90
        1
176
     1
 90
        2
176
     1
 40
0.6
176
     1
 40
30.0
176
     1
 62
     7
420
 16777215
176
     1
 90
        0
176
     1
 90
        4
176
     1
 62
     7
176
     1
 62
   257
176
     1
 90
        1
176
     1
 90
        1
176
     1
 40
1.0
176
     1
 90
        8
176
     1
 62
   257
176
     1
 40
1.0
176
     1
 90
        1
176
     1
 90
        6
176
     1
 90
        2
176
     1
 62
     8
420
  7895160
176
     1
 90
        3
176
     1
 90
        0
176
     1
 90
        0
176
     1
290
     0
176
     1
 90
        5
176
     1
 40
0.0
176
     1
 90
        0
176
     1
290
     0
176
     1
290
     1
176
     1
290
     1
176
     1
290
     0
176
     1
290
     0
176
     1
290
     0
176
     1
290
     0
176
     1
290
     0
176
     1
290
     0
176
     1
 90
       50
176
     1
 40
0.0
176
     1
 40
1.0
176
     1
 90
        0
176
     1
 62
    18
420
        0
176
     1
 90
       50
176
     1
 90
        3
176
     1
 62
     5
420
      255
176
     1
290
     0
176
     1
 90
       50
176
     1
 90
       50
176
     1
 90
       50
176
     1
290
     0
176
     1
 90
       50
176
     1
 62
   256
176
     0
 40
1.0
176
     0
 90
        2
176
     1
  1
strokes_ogs.tif
176
     1
290
     0
176
     1
 40
1.0
176
     1
 40
1.0
176
     1
  0
VISUALSTYLE
  5
3D
102
{ACAD_REACTORS
330
29
102
}
330
29
100
AcDbVisualStyle
  2
Shaded with edges
 70
    26
177
     3
291
     0
 70
    58
 90
        2
176
     1
 90
        2
176
     1
 90
        1
176
     1
 90
        2
176
     1
 40
0.6
176
     1
 40
30.0
176
     1
 62
     7
420
 16777215
176
     1
 90
        1
176
     1
 90
        2
176
     1
 62
     7
176
     1
 62
   257
176
     1
 90
        2
176
     1
 90
        1
176
     1
 40
1.0
176
     1
 90
        8
176
     1
 62
   257
176
     1
 40
1.0
176
     1
 90
        1
176
     1
 90
        6
176
     1
 90
        2
176
     1
 62
     7
176
     1
 90
        3
176
     1
 90
        0
176
     1
 90
        0
176
     1
290
     0
176
     1
 90
        5
176
     1
 40
0.0
176
     1
 90
        0
176
     1
290
     0
176
     1
290
     1
176
     1
290
     1
176
     1
290
     0
176
     1
290
     0
176
     1
290
     0
176
     1
290
     0
176
     1
290
     0
176
     1
290
     0
176
     1
 90
       50
176
     1
 40
0.0
176
     1
 40
1.0
176
     1
 90
        0
176
     1
 62
    18
420
        0
176
     1
 90
       50
176
     1
 90
        3
176
     1
 62
     5
420
      255
176
     1
290
     0
176
     1
 90
       50
176
     1
 90
       50
176
     1
 90
       50
176
     1
290
     0
176
     1
 90
       50
176
     1
 62
   256
176
     0
 40
1.0
176
     0
 90
        2
176
     1
  1
strokes_ogs.tif
176
     1
290
     0
176
     1
 40
1.0
176
     1
 40
1.0
176
     1
  0
VISUALSTYLE
  5
3A
102
{ACAD_REACTORS
330
29
102
}
330
29
100
AcDbVisualStyle
  2
Shades of Gray
 70
    23
177
     3
291
     0
 70
    58
 90
        2
176
     1
 90
        2
176
     1
 90
        3
176
     1
 90
        0
176
     1
 40
0.6
176
     1
 40
30.0
176
     1
 62
     7
420
 16777215
176
     1
 90
        2
176
     1
 90
        2
176
     1
 62
     7
176
     1
 62
     7
176
     1
 90
        1
176
     1
 90
        1
176
     1
 40
40.0
176
     1
 90
        8
176
     1
 62
     7
176
     1
 40
1.0
176
     1
 90
        1
176
     1
 90
        6
176
     1
 90
        2
176
     1
 62
     7
176
     1
 90
        3
176
     1
 90
        0
176
     1
 90
        0
176
     1
290
     0
176
     1
 90
        1
176
     1
 40
0.0
176
     1
 90
        0
176
     1
290
     0
176
     1
290
     1
176
     1
290
     1
176
     1
290
     0
176
     1
290
     0
176
     1
290
     0
176
     1
290
     0
176
     1
290
     0
176
     1
290
     0
176
     1
 90
       50
176
     1
 40
0.0
176
     1
 40
1.0
176
     1
 90
        0
176
     1
 62
    18
420
        0
176
     1
 90
       50
176
     1
 90
        3
176
     1
 62
     5
420
      255
176
     1
290
     0
176
     1
 90
       50
176
     1
 90
       50
176
     1
 90
       50
176
     1
290
     0
176
     1
 90
       50
176
     1
 62
   256
176
     0
 40
1.0
176
     0
 90
        2
176
     1
  1
strokes_ogs.tif
176
     1
290
     0
176
     1
 40
1.0
176
     1
 40
1.0
176
     1
  0
VISUALSTYLE
  5
3B
102
{ACAD_REACTORS
330
29
102
}
330
29
100
AcDbVisualStyle
  2
Sketchy
 70
    24
177
     3
291
     0
 70
    58
 90
        1
176
     1
 90
        2
176
     1
 90
        2
176
     1
 90
        0
176
     1
 40
0.6
176
     1
 40
30.0
176
     1
 62
     7
420
 16777215
176
     1
 90
        2
176
     1
 90
        2
176
     1
 62
     7
176
     1
 62
     7
176
     1
 90
        1
176
     1
 90
        1
176
     1
 40
40.0
176
     1
 90
       11
176
     1
 62
     7
176
     1
 40
1.0
176
     1
 90
        1
176
     1
 90
        6
176
     1
 90
        2
176
     1
 62
     7
176
     1
 90
        6
176
     1
 90
        0
176
     1
 90
        0
176
     1
290
     0
176
     1
 90
        1
176
     1
 40
0.0
176
     1
 90
        0
176
     1
290
     0
176
     1
290
     1
176
     1
290
     1
176
     1
290
     0
176
     1
290
     0
176
     1
290
     0
176
     1
290
     0
176
     1
290
     0
176
     1
290
     0
176
     1
 90
       50
176
     1
 40
0.0
176
     1
 40
1.0
176
     1
 90
        0
176
     1
 62
    18
420
        0
176
     1
 90
       50
176
     1
 90
        3
176
     1
 62
     5
420
      255
176
     1
290
     0
176
     1
 90
       50
176
     1
 90
       50
176
     1
 90
       50
176
     1
290
     0
176
     1
 90
       50
176
     1
 62
   256
176
     0
 40
1.0
176
     0
 90
        2
176
     1
  1
strokes_ogs.tif
176
     1
290
     0
176
     1
 40
1.0
176
     1
 40
1.0
176
     1
  0
VISUALSTYLE
  5
36
102
{ACAD_REACTORS
330
29
102
}
330
29
100
AcDbVisualStyle
  2
Thicken
 70
    13
177
     3
291
     1
 70
    58
 90
        2
176
     1
 90
        2
176
     1
 90
        0
176
     1
 90
        0
176
     1
 40
0.6
176
     1
 40
30.0
176
     1
 62
     7
420
 16777215
176
     1
 90
        1
176
     1
 90
        4
176
     1
 62
     7
176
     1
 62
   257
176
     1
 90
        1
176
     1
 90
        1
176
     1
 40
1.0
176
     1
 90
       12
176
     1
 62
     7
176
     1
 40
1.0
176
     1
 90
        1
176
     1
 90
        6
176
     1
 90
        2
176
     1
 62
     7
176
     1
 90
        5
176
     1
 90
        0
176
     1
 90
        0
176
     1
290
     0
176
     1
 90
        1
176
     1
 40
0.0
176
     1
 90
        0
176
     1
290
     0
176
     1
290
     1
176
     1
290
     1
176
     1
290
     0
176
     1
290
     0
176
     1
290
     0
176
     1
290
     0
176
     1
290
     0
176
     1
290
     0
176
     1
 90
       50
176
     1
 40
0.0
176
     1
 40
1.0
176
     1
 90
        0
176
     1
 62
    18
420
        0
176
     1
 90
       50
176
     1
 90
        3
176
     1
 62
     5
420
      255
176
     1
290
     0
176
     1
 90
       50
176
     1
 90
       50
176
     1
 90
       50
176
     1
290
     0
176
     1
 90
       50
176
     1
 62
   256
176
     0
 40
1.0
176
     0
 90
        2
176
     1
  1
strokes_ogs.tif
176
     1
290
     0
176
     1
 40
1.0
176
     1
 40
1.0
176
     1
  0
VISUALSTYLE
  5
30
102
{ACAD_REACTORS
330
29
102
}
330
29
100
AcDbVisualStyle
  2
Wireframe
 70
     5
177
     3
291
     0
 70
    58
 90
        0
176
     1
 90
        2
176
     1
 90
        0
176
     1
 90
        0
176
     1
 40
0.6
176
     1
 40
30.0
176
     1
 62
     7
420
 16777215
176
     1
 90
        1
176
     1
 90
        4
176
     1
 62
     7
176
     1
 62
   257
176
     1
 90
        1
176
     1
 90
        1
176
     1
 40
1.0
176
     1
 90
        0
176
     1
 62
   257
176
     1
 40
1.0
176
     1
 90
        1
176
     1
 90
        6
176
     1
 90
        2
176
     1
 62
     7
176
     1
 90
        3
176
     1
 90
        0
176
     1
 90
        0
176
     1
290
     0
176
     1
 90
        1
176
     1
 40
0.0
176
     1
 90
        0
176
     1
290
     0
176
     1
290
     1
176
     1
290
     1
176
     1
290
     0
176
     1
290
     0
176
     1
290
     0
176
     1
290
     0
176
     1
290
     0
176
     1
290
     0
176
     1
 90
       50
176
     1
 40
0.0
176
     1
 40
1.0
176
     1
 90
        0
176
     1
 62
    18
420
        0
176
     1
 90
       50
176
     1
 90
        3
176
     1
 62
     5
420
      255
176
     1
290
     0
176
     1
 90
       50
176
     1
 90
       50
176
     1
 90
       50
176
     1
290
     0
176
     1
 90
       50
176
     1
 62
   256
176
     0
 40
1.0
176
     0
 90
        2
176
     1
  1
strokes_ogs.tif
176
     1
290
     0
176
     1
 40
1.0
176
     1
 40
1.0
176
     1
  0
VISUALSTYLE
  5
3C
102
{ACAD_REACTORS
330
29
102
}
330
29
100
AcDbVisualStyle
  2
X-Ray
 70
    25
177
     3
291
     0
 70
    58
 90
        2
176
     1
 90
        2
176
     1
 90
        1
176
     1
 90
        1
176
     1
 40
0.5
176
     1
 40
30.0
176
     1
 62
     7
420
 16777215
176
     1
 90
        1
176
     1
 90
        0
176
     1
 62
     7
176
     1
 62
   257
176
     1
 90
        1
176
     1
 90
        1
176
     1
 40
1.0
176
     1
 90
        8
176
     1
 62
     7
176
     1
 40
1.0
176
     1
 90
        1
176
     1
 90
        6
176
     1
 90
        2
176
     1
 62
     7
176
     1
 90
        3
176
     1
 90
        0
176
     1
 90
        0
176
     1
290
     0
176
     1
 90
       13
176
     1
 40
0.0
176
     1
 90
        0
176
     1
290
     0
176
     1
290
     1
176
     1
290
     1
176
     1
290
     0
176
     1
290
     0
176
     1
290
     0
176
     1
290
     0
176
     1
290
     0
176
     1
290
     0
176
     1
 90
       50
176
     1
 40
0.0
176
     1
 40
1.0
176
     1
 90
        0
176
     1
 62
    18
420
        0
176
     1
 90
       50
176
     1
 90
        3
176
     1
 62
     5
420
      255
176
     1
290
     0
176
     1
 90
       50
176
     1
 90
       50
176
     1
 90
       50
176
     1
290
     0
176
     1
 90
       50
176
     1
 62
   256
176
     0
 40
1.0
176
     0
 90
        2
176
     1
  1
strokes_ogs.tif
176
     1
290
     0
176
     1
 40
1.0
176
     1
 40
1.0
176
     1
  0
DICTIONARYVAR
  5
A1
102
{ACAD_REACTORS
330
9C
102
}
330
9C
100
DictionaryVariables
280
     0
  1
1:1
  0
DICTIONARYVAR
  5
9E
102
{ACAD_REACTORS
330
9C
102
}
330
9C
100
DictionaryVariables
280
     0
  1
STANDARD
  0
DICTIONARYVAR
  5
9D
102
{ACAD_REACTORS
330
9C
102
}
330
9C
100
DictionaryVariables
280
     0
  1
STANDARD
  0
DICTIONARYVAR
  5
9F
102
{ACAD_REACTORS
330
9C
102
}
330
9C
100
DictionaryVariables
280
     0
  1
Imperial24
  0
DICTIONARYVAR
  5
A0
102
{ACAD_REACTORS
330
9C
102
}
330
9C
100
DictionaryVariables
280
     0
  1
Imperial24
  0
DICTIONARY
  5
1A
330
19
100
AcDbDictionary
280
     1
281
     1
  3
BUMPTILE
360
1C
  3
DIFFUSETILE
360
1B
  3
OPACITYTILE
360
1F
  3
REFLECTIONTILE
360
1E
  3
REFRACTIONTILE
360
20
  3
SPECULARTILE
360
1D
  0
DICTIONARY
  5
12
330
11
100
AcDbDictionary
280
     1
281
     1
  3
BUMPTILE
360
14
  3
DIFFUSETILE
360
13
  3
OPACITYTILE
360
17
  3
REFLECTIONTILE
360
16
  3
REFRACTIONTILE
360
18
  3
SPECULARTILE
360
15
  0
DICTIONARY
  5
22
330
21
100
AcDbDictionary
280
     1
281
     1
  3
BUMPTILE
360
24
  3
DIFFUSETILE
360
23
  3
OPACITYTILE
360
27
  3
REFLECTIONTILE
360
26
  3
REFRACTIONTILE
360
28
  3
SPECULARTILE
360
25
  0
DICTIONARY
  5
A2
330
65
100
AcDbDictionary
280
     1
281
     1
  3
ACAD_ROUNDTRIP_2008_TABLESTYLE_CELLSTYLEMAP
360
A3
  0
XRECORD
  5
1C
102
{ACAD_REACTORS
330
1A
102
}
330
1A
100
AcDbXrecord
280
     1
270
     1
271
     1
  0
XRECORD
  5
1B
102
{ACAD_REACTORS
330
1A
102
}
330
1A
100
AcDbXrecord
280
     1
270
     1
271
     1
  0
XRECORD
  5
1F
102
{ACAD_REACTORS
330
1A
102
}
330
1A
100
AcDbXrecord
280
     1
270
     1
271
     1
  0
XRECORD
  5
1E
102
{ACAD_REACTORS
330
1A
102
}
330
1A
100
AcDbXrecord
280
     1
270
     1
271
     1
  0
XRECORD
  5
20
102
{ACAD_REACTORS
330
1A
102
}
330
1A
100
AcDbXrecord
280
     1
270
     1
271
     1
  0
XRECORD
  5
1D
102
{ACAD_REACTORS
330
1A
102
}
330
1A
100
AcDbXrecord
280
     1
270
     1
271
     1
  0
XRECORD
  5
14
102
{ACAD_REACTORS
330
12
102
}
330
12
100
AcDbXrecord
280
     1
270
     1
271
     1
  0
XRECORD
  5
13
102
{ACAD_REACTORS
330
12
102
}
330
12
100
AcDbXrecord
280
     1
270
     1
271
     1
  0
XRECORD
  5
17
102
{ACAD_REACTORS
330
12
102
}
330
12
100
AcDbXrecord
280
     1
270
     1
271
     1
  0
XRECORD
  5
16
102
{ACAD_REACTORS
330
12
102
}
330
12
100
AcDbXrecord
280
     1
270
     1
271
     1
  0
XRECORD
  5
18
102
{ACAD_REACTORS
330
12
102
}
330
12
100
AcDbXrecord
280
     1
270
     1
271
     1
  0
XRECORD
  5
15
102
{ACAD_REACTORS
330
12
102
}
330
12
100
AcDbXrecord
280
     1
270
     1
271
     1
  0
XRECORD
  5
24
102
{ACAD_REACTORS
330
22
102
}
330
22
100
AcDbXrecord
280
     1
270
     1
271
     1
  0
XRECORD
  5
23
102
{ACAD_REACTORS
330
22
102
}
330
22
100
AcDbXrecord
280
     1
270
     1
271
     1
  0
XRECORD
  5
27
102
{ACAD_REACTORS
330
22
102
}
330
22
100
AcDbXrecord
280
     1
270
     1
271
     1
  0
XRECORD
  5
26
102
{ACAD_REACTORS
330
22
102
}
330
22
100
AcDbXrecord
280
     1
270
     1
271
     1
  0
XRECORD
  5
28
102
{ACAD_REACTORS
330
22
102
}
330
22
100
AcDbXrecord
280
     1
270
     1
271
     1
  0
XRECORD
  5
25
102
{ACAD_REACTORS
330
22
102
}
330
22
100
AcDbXrecord
280
     1
270
     1
271
     1
  0
CELLSTYLEMAP
  5
A3
102
{ACAD_REACTORS
330
A2
102
}
330
A2
100
AcDbCellStyleMap
 90
        3
300
CELLSTYLE
  1
TABLEFORMAT_BEGIN
 90
        5
170
     1
 91
        0
 92
    32768
 62
   257
 93
        1
300
CONTENTFORMAT
  1
CONTENTFORMAT_BEGIN
 90
        0
 91
        0
 92
      512
 93
        0
300

 40
0.0
140
1.0
 94
        5
 62
     0
340
55
144
0.25
309
CONTENTFORMAT_END
171
     0
 94
        0
309
TABLEFORMAT_END
  1
CELLSTYLE_BEGIN
 90
        1
 91
        1
300
_TITLE
309
CELLSTYLE_END
300
CELLSTYLE
  1
TABLEFORMAT_BEGIN
 90
        5
170
     1
 91
        0
 92
        0
 62
   257
 93
        1
300
CONTENTFORMAT
  1
CONTENTFORMAT_BEGIN
 90
        0
 91
        0
 92
      512
 93
        0
300

 40
0.0
140
1.0
 94
        5
 62
     0
340
55
144
0.18
309
CONTENTFORMAT_END
171
     0
 94
        0
309
TABLEFORMAT_END
  1
CELLSTYLE_BEGIN
 90
        2
 91
        1
300
_HEADER
309
CELLSTYLE_END
300
CELLSTYLE
  1
TABLEFORMAT_BEGIN
 90
        5
170
     1
 91
        0
 92
        0
 62
   257
 93
        1
300
CONTENTFORMAT
  1
CONTENTFORMAT_BEGIN
 90
        0
 91
        0
 92
      512
 93
        0
300

 40
0.0
140
1.0
 94
        2
 62
     0
340
55
144
0.18
309
CONTENTFORMAT_END
171
     0
 94
        0
309
TABLEFORMAT_END
  1
CELLSTYLE_BEGIN
 90
        3
 91
        2
300
_DATA
309
CELLSTYLE_END
  0
ENDSEC
  0
EOF
