  0
SECTION
  2
HEADER
  9
$ACADVER
  1
AC1032
  9
$ACADMAINTVER
 90
      197
  9
$DWGCODEPAGE
  3
ANSI_1252
  9
$REQUIREDVERSIONS
160
                 0
  9
$INSBASE
 10
0.0
 20
0.0
 30
0.0
  9
$EXTMIN
 10
1.000000000000000E+20
 20
1.000000000000000E+20
 30
1.000000000000000E+20
  9
$EXTMAX
 10
-1.000000000000000E+20
 20
-1.000000000000000E+20
 30
-1.000000000000000E+20
  9
$LIMMIN
 10
0.0
 20
0.0
  9
$LIMMAX
 10
12.0
 20
9.0
  9
$ORTHOMODE
 70
     0
  9
$REGENMODE
 70
     1
  9
$FILLMODE
 70
     1
  9
$QTEXTMODE
 70
     0
  9
$MIRRTEXT
 70
     0
  9
$LTSCALE
 40
1.0
  9
$ATTMODE
 70
     1
  9
$TEXTSIZE
 40
0.2
  9
$TRACEWID
 40
0.05
  9
$TEXTSTYLE
  7
Standard
  9
$CLAYER
  8
0
  9
$CELTYPE
  6
ByLayer
  9
$CECOLOR
 62
   256
  9
$CELTSCALE
 40
1.0
  9
$DISPSILH
 70
     0
  9
$DIMSCALE
 40
1.0
  9
$DIMASZ
 40
0.18
  9
$DIMEXO
 40
0.0625
  9
$DIMDLI
 40
0.38
  9
$DIMRND
 40
0.0
  9
$DIMDLE
 40
0.0
  9
$DIMEXE
 40
0.18
  9
$DIMTP
 40
0.0
  9
$DIMTM
 40
0.0
  9
$DIMTXT
 40
0.18
  9
$DIMCEN
 40
0.09
  9
$DIMTSZ
 40
0.0
  9
$DIMTOL
 70
     0
  9
$DIMLIM
 70
     0
  9
$DIMTIH
 70
     1
  9
$DIMTOH
 70
     1
  9
$DIMSE1
 70
     0
  9
$DIMSE2
 70
     0
  9
$DIMTAD
 70
     0
  9
$DIMZIN
 70
     0
  9
$DIMBLK
  1

  9
$DIMASO
 70
     1
  9
$DIMSHO
 70
     1
  9
$DIMPOST
  1

  9
$DIMAPOST
  1

  9
$DIMALT
 70
     0
  9
$DIMALTD
 70
     2
  9
$DIMALTF
 40
25.4
  9
$DIMLFAC
 40
1.0
  9
$DIMTOFL
 70
     0
  9
$DIMTVP
 40
0.0
  9
$DIMTIX
 70
     0
  9
$DIMSOXD
 70
     0
  9
$DIMSAH
 70
     0
  9
$DIMBLK1
  1

  9
$DIMBLK2
  1

  9
$DIMSTYLE
  2
Standard
  9
$DIMCLRD
 70
     0
  9
$DIMCLRE
 70
     0
  9
$DIMCLRT
 70
     0
  9
$DIMTFAC
 40
1.0
  9
$DIMGAP
 40
0.09
  9
$DIMJUST
 70
     0
  9
$DIMSD1
 70
     0
  9
$DIMSD2
 70
     0
  9
$DIMTOLJ
 70
     1
  9
$DIMTZIN
 70
     0
  9
$DIMALTZ
 70
     0
  9
$DIMALTTZ
 70
     0
  9
$DIMUPT
 70
     0
  9
$DIMDEC
 70
     4
  9
$DIMTDEC
 70
     4
  9
$DIMALTU
 70
     2
  9
$DIMALTTD
 70
     2
  9
$DIMTXSTY
  7
Standard
  9
$DIMAUNIT
 70
     0
  9
$DIMADEC
 70
     0
  9
$DIMALTRND
 40
0.0
  9
$DIMAZIN
 70
     0
  9
$DIMDSEP
 70
    46
  9
$DIMATFIT
 70
     3
  9
$DIMFRAC
 70
     0
  9
$DIMLDRBLK
  1

  9
$DIMLUNIT
 70
     2
  9
$DIMLWD
 70
    -2
  9
$DIMLWE
 70
    -2
  9
$DIMTMOVE
 70
     0
  9
$DIMFXL
 40
1.0
  9
$DIMFXLON
 70
     0
  9
$DIMJOGANG
 40
0.7853981633974483
  9
$DIMTFILL
 70
     0
  9
$DIMTFILLCLR
 70
     0
  9
$DIMARCSYM
 70
     0
  9
$DIMLTYPE
  6

  9
$DIMLTEX1
  6

  9
$DIMLTEX2
  6

  9
$DIMTXTDIRECTION
 70
     0
  9
$LUNITS
 70
     2
  9
$LUPREC
 70
     4
  9
$SKETCHINC
 40
0.1
  9
$FILLETRAD
 40
0.0
  9
$AUNITS
 70
     0
  9
$AUPREC
 70
     0
  9
$MENU
  1
.
  9
$ELEVATION
 40
0.0
  9
$PELEVATION
 40
0.0
  9
$THICKNESS
 40
0.0
  9
$LIMCHECK
 70
     0
  9
$CHAMFERA
 40
0.0
  9
$CHAMFERB
 40
0.0
  9
$CHAMFERC
 40
0.0
  9
$CHAMFERD
 40
0.0
  9
$SKPOLY
 70
     0
  9
$TDCREATE
 40
2459635.725312500
  9
$TDUCREATE
 40
2459635.725312500
  9
$TDUPDATE
 40
2459635.725312500
  9
$TDUUPDATE
 40
2459635.725312500
  9
$TDINDWG
 40
0.0000000000
  9
$TDUSRTIMER
 40
0.0000000000
  9
$USRTIMER
 70
     1
  9
$ANGBASE
 50
0.0
  9
$ANGDIR
 70
     0
  9
$PDMODE
 70
     0
  9
$PDSIZE
 40
0.0
  9
$PLINEWID
 40
0.0
  9
$SPLFRAME
 70
     0
  9
$SPLINETYPE
 70
     6
  9
$SPLINESEGS
 70
     8
  9
$HANDSEED
  5
F6
  9
$SURFTAB1
 70
     6
  9
$SURFTAB2
 70
     6
  9
$SURFTYPE
 70
     6
  9
$SURFU
 70
     6
  9
$SURFV
 70
     6
  9
$UCSBASE
  2

  9
$UCSNAME
  2

  9
$UCSORG
 10
0.0
 20
0.0
 30
0.0
  9
$UCSXDIR
 10
1.0
 20
0.0
 30
0.0
  9
$UCSYDIR
 10
0.0
 20
1.0
 30
0.0
  9
$UCSORTHOREF
  2

  9
$UCSORTHOVIEW
 70
     0
  9
$UCSORGTOP
 10
0.0
 20
0.0
 30
0.0
  9
$UCSORGBOTTOM
 10
0.0
 20
0.0
 30
0.0
  9
$UCSORGLEFT
 10
0.0
 20
0.0
 30
0.0
  9
$UCSORGRIGHT
 10
0.0
 20
0.0
 30
0.0
  9
$UCSORGFRONT
 10
0.0
 20
0.0
 30
0.0
  9
$UCSORGBACK
 10
0.0
 20
0.0
 30
0.0
  9
$PUCSBASE
  2

  9
$PUCSNAME
  2

  9
$PUCSORG
 10
0.0
 20
0.0
 30
0.0
  9
$PUCSXDIR
 10
1.0
 20
0.0
 30
0.0
  9
$PUCSYDIR
 10
0.0
 20
1.0
 30
0.0
  9
$PUCSORTHOREF
  2

  9
$PUCSORTHOVIEW
 70
     0
  9
$PUCSORGTOP
 10
0.0
 20
0.0
 30
0.0
  9
$PUCSORGBOTTOM
 10
0.0
 20
0.0
 30
0.0
  9
$PUCSORGLEFT
 10
0.0
 20
0.0
 30
0.0
  9
$PUCSORGRIGHT
 10
0.0
 20
0.0
 30
0.0
  9
$PUCSORGFRONT
 10
0.0
 20
0.0
 30
0.0
  9
$PUCSORGBACK
 10
0.0
 20
0.0
 30
0.0
  9
$USERI1
 70
     0
  9
$USERI2
 70
     0
  9
$USERI3
 70
     0
  9
$USERI4
 70
     0
  9
$USERI5
 70
     0
  9
$USERR1
 40
0.0
  9
$USERR2
 40
0.0
  9
$USERR3
 40
0.0
  9
$USERR4
 40
0.0
  9
$USERR5
 40
0.0
  9
$WORLDVIEW
 70
     1
  9
$SHADEDGE
 70
     3
  9
$SHADEDIF
 70
    70
  9
$TILEMODE
 70
     1
  9
$MAXACTVP
 70
    64
  9
$PINSBASE
 10
0.0
 20
0.0
 30
0.0
  9
$PLIMCHECK
 70
     0
  9
$PEXTMIN
 10
1.000000000000000E+20
 20
1.000000000000000E+20
 30
1.000000000000000E+20
  9
$PEXTMAX
 10
-1.000000000000000E+20
 20
-1.000000000000000E+20
 30
-1.000000000000000E+20
  9
$PLIMMIN
 10
0.0
 20
0.0
  9
$PLIMMAX
 10
12.0
 20
9.0
  9
$UNITMODE
 70
     0
  9
$VISRETAIN
 70
     1
  9
$PLINEGEN
 70
     0
  9
$PSLTSCALE
 70
     1
  9
$TREEDEPTH
 70
  3020
  9
$CMLSTYLE
  2
Standard
  9
$CMLJUST
 70
     0
  9
$CMLSCALE
 40
1.0
  9
$PROXYGRAPHICS
 70
     1
  9
$MEASUREMENT
 70
     0
  9
$CELWEIGHT
370
    -1
  9
$ENDCAPS
280
     0
  9
$JOINSTYLE
280
     0
  9
$LWDISPLAY
290
     1
  9
$INSUNITS
 70
     4
  9
$HYPERLINKBASE
  1

  9
$STYLESHEET
  1

  9
$XEDIT
290
     1
  9
$CEPSNTYPE
380
     0
  9
$PSTYLEMODE
290
     1
  9
$FINGERPRINTGUID
  2
{61CE0A13-829D-714A-8FF5-2D3B3FE94765}
  9
$VERSIONGUID
  2
{E024F3F6-E175-4442-AC11-75E242FD268C}
  9
$EXTNAMES
290
     1
  9
$PSVPSCALE
 40
0.0
  9
$OLESTARTUP
290
     0
  9
$SORTENTS
280
   127
  9
$INDEXCTL
280
     0
  9
$HIDETEXT
280
     1
  9
$XCLIPFRAME
280
     2
  9
$HALOGAP
280
     0
  9
$OBSCOLOR
 70
   257
  9
$OBSLTYPE
280
     0
  9
$INTERSECTIONDISPLAY
280
     0
  9
$INTERSECTIONCOLOR
 70
   257
  9
$DIMASSOC
280
     2
  9
$PROJECTNAME
  1

  9
$CAMERADISPLAY
290
     0
  9
$LENSLENGTH
 40
50.0
  9
$CAMERAHEIGHT
 40
0.0
  9
$STEPSPERSEC
 40
2.0
  9
$STEPSIZE
 40
6.0
  9
$3DDWFPREC
 40
2.0
  9
$PSOLWIDTH
 40
0.25
  9
$PSOLHEIGHT
 40
4.0
  9
$LOFTANG1
 40
1.570796326794896
  9
$LOFTANG2
 40
1.570796326794896
  9
$LOFTMAG1
 40
0.0
  9
$LOFTMAG2
 40
0.0
  9
$LOFTPARAM
 70
     7
  9
$LOFTNORMALS
280
     1
  9
$LATITUDE
 40
37.795
  9
$LONGITUDE
 40
-122.394
  9
$NORTHDIRECTION
 40
0.0
  9
$TIMEZONE
 70
 -8000
  9
$LIGHTGLYPHDISPLAY
280
     1
  9
$TILEMODELIGHTSYNCH
280
     1
  9
$CMATERIAL
347
11
  9
$SOLIDHIST
280
     0
  9
$SHOWHIST
280
     1
  9
$DWFFRAME
280
     2
  9
$DGNFRAME
280
     0
  9
$REALWORLDSCALE
290
     1
  9
$INTERFERECOLOR
 62
     1
  9
$INTERFEREOBJVS
345
33
  9
$INTERFEREVPVS
346
30
  9
$CSHADOW
280
     0
  9
$SHADOWPLANELOCATION
 40
0.0
  0
ENDSEC
  0
SECTION
  2
CLASSES
  0
CLASS
  1
ACDBDICTIONARYWDFLT
  2
AcDbDictionaryWithDefault
  3
ObjectDBX Classes
 90
        0
 91
        1
280
     0
281
     0
  0
CLASS
  1
MATERIAL
  2
AcDbMaterial
  3
ObjectDBX Classes
 90
     1153
 91
        3
280
     0
281
     0
  0
CLASS
  1
VISUALSTYLE
  2
AcDbVisualStyle
  3
ObjectDBX Classes
 90
     4095
 91
       24
280
     0
281
     0
  0
CLASS
  1
SCALE
  2
AcDbScale
  3
ObjectDBX Classes
 90
     1153
 91
       17
280
     0
281
     0
  0
CLASS
  1
TABLESTYLE
  2
AcDbTableStyle
  3
ObjectDBX Classes
 90
     4095
 91
        1
280
     0
281
     0
  0
CLASS
  1
MLEADERSTYLE
  2
AcDbMLeaderStyle
  3
ACDB_MLEADERSTYLE_CLASS
 90
     4095
 91
        1
280
     0
281
     0
  0
CLASS
  1
ACDBSECTIONVIEWSTYLE
  2
AcDbSectionViewStyle
  3
ObjectDBX Classes
 90
     1025
 91
        1
280
     0
281
     0
  0
CLASS
  1
ACDBDETAILVIEWSTYLE
  2
AcDbDetailViewStyle
  3
ObjectDBX Classes
 90
     1025
 91
        1
280
     0
281
     0
  0
CLASS
  1
DICTIONARYVAR
  2
AcDbDictionaryVar
  3
ObjectDBX Classes
 90
        0
 91
        5
280
     0
281
     0
  0
CLASS
  1
CELLSTYLEMAP
  2
AcDbCellStyleMap
  3
ObjectDBX Classes
 90
     1152
 91
        1
280
     0
281
     0
  0
ENDSEC
  0
SECTION
  2
TABLES
  0
TABLE
  2
VPORT
  5
8
330
0
100
AcDbSymbolTable
 70
     1
  0
VPORT
  5
57
330
8
100
AcDbSymbolTableRecord
100
AcDbViewportTableRecord
  2
*Active
 70
     0
 10
0.0
 20
0.0
 11
1.0
 21
1.0
 12
0.0
 22
0.0
 13
0.0
 23
0.0
 14
1.0
 24
1.0
 15
0.0
 25
0.0
 16
0.0
 26
0.0
 36
1.0
 17
105.1277777514958
 27
148.0763888705885
 37
0.0
 40
458.9999998852498
 41
0.8888888888888896
 42
50.0
 43
0.0
 44
0.0
 50
0.0
 51
0.0
 71
     0
 72
   100
 73
     1
 74
     1
 75
     0
 76
     0
 77
     0
 78
     0
281
     0
 65
     1
110
0.0
120
0.0
130
0.0
111
1.0
121
0.0
131
0.0
112
0.0
122
1.0
132
0.0
 79
     0
146
0.0
 60
     3
 61
     5
292
     1
282
     1
141
0.0
142
0.0
 63
   250
421
  3355443
  0
ENDTAB
  0
TABLE
  2
LTYPE
  5
5
330
0
100
AcDbSymbolTable
 70
     2
  0
LTYPE
  5
5B
330
5
100
AcDbSymbolTableRecord
100
AcDbLinetypeTableRecord
  2
ByBlock
 70
     0
  3

 72
    65
 73
     0
 40
0.0
  0
LTYPE
  5
5C
330
5
100
AcDbSymbolTableRecord
100
AcDbLinetypeTableRecord
  2
ByLayer
 70
     0
  3

 72
    65
 73
     0
 40
0.0
  0
LTYPE
  5
5D
330
5
100
AcDbSymbolTableRecord
100
AcDbLinetypeTableRecord
  2
Continuous
 70
     0
  3
Solid line
 72
    65
 73
     0
 40
0.0
  0
LTYPE
  5
79
330
5
100
AcDbSymbolTableRecord
100
AcDbLinetypeTableRecord
  2
AI-Linetype-0
 70
     0
  3
Adobe Illustrator Linetype No. 0
 72
    65
 73
     2
 40
9.121239180403847
 49
7.298756417463098
 74
     0
 49
-1.822482762940748
 74
     0
  0
ENDTAB
  0
TABLE
  2
LAYER
  5
2
330
0
100
AcDbSymbolTable
 70
     1
  0
LAYER
  5
54
330
2
100
AcDbSymbolTableRecord
100
AcDbLayerTableRecord
  2
0
 70
     0
 62
     7
  6
Continuous
370
     0
390
F
347
21
348
0
  0
ENDTAB
  0
TABLE
  2
STYLE
  5
3
330
0
100
AcDbSymbolTable
 70
     2
  0
STYLE
  5
55
330
3
100
AcDbSymbolTableRecord
100
AcDbTextStyleTableRecord
  2
Standard
 70
     0
 40
0.0
 41
1.0
 50
0.0
 71
     0
 42
0.2
  3
txt
  4

  0
STYLE
  5
5A
330
3
100
AcDbSymbolTableRecord
100
AcDbTextStyleTableRecord
  2
Annotative
 70
     0
 40
0.0
 41
1.0
 50
0.0
 71
     0
 42
0.2
  3
txt
  4

1001
AcadAnnotative
1000
AnnotativeData
1002
{
1070
     1
1070
     1
1002
}
  0
ENDTAB
  0
TABLE
  2
VIEW
  5
6
330
0
100
AcDbSymbolTable
 70
     0
  0
ENDTAB
  0
TABLE
  2
UCS
  5
7
330
0
100
AcDbSymbolTable
 70
     0
  0
ENDTAB
  0
TABLE
  2
APPID
  5
9
330
0
100
AcDbSymbolTable
 70
     2
  0
APPID
  5
56
330
9
100
AcDbSymbolTableRecord
100
AcDbRegAppTableRecord
  2
ACAD
 70
     0
  0
APPID
  5
5E
330
9
100
AcDbSymbolTableRecord
100
AcDbRegAppTableRecord
  2
AcadAnnotative
 70
     0
  0
ENDTAB
  0
TABLE
  2
DIMSTYLE
  5
A
330
0
100
AcDbSymbolTable
 70
     2
100
AcDbDimStyleTable
 71
     0
  0
DIMSTYLE
105
58
330
A
100
AcDbSymbolTableRecord
100
AcDbDimStyleTableRecord
  2
Standard
 70
     0
340
55
  0
DIMSTYLE
105
59
330
A
100
AcDbSymbolTableRecord
100
AcDbDimStyleTableRecord
  2
Annotative
 70
     0
340
55
1001
AcadAnnotative
1000
AnnotativeData
1002
{
1070
     1
1070
     1
1002
}
  0
ENDTAB
  0
TABLE
  2
BLOCK_RECORD
  5
1
330
0
100
AcDbSymbolTable
 70
     5
  0
BLOCK_RECORD
  5
70
330
1
100
AcDbSymbolTableRecord
100
AcDbBlockTableRecord
  2
*Model_Space
340
73
 70
     0
280
     1
281
     0
  0
BLOCK_RECORD
  5
6C
330
1
100
AcDbSymbolTableRecord
100
AcDbBlockTableRecord
  2
*Paper_Space
340
6F
 70
     0
280
     1
281
     0
  0
BLOCK_RECORD
  5
74
330
1
100
AcDbSymbolTableRecord
100
AcDbBlockTableRecord
  2
*Paper_Space0
340
77
 70
     0
280
     1
281
     0
  0
BLOCK_RECORD
  5
A1
330
1
100
AcDbSymbolTableRecord
100
AcDbBlockTableRecord
  2
Block_0
340
0
102
{BLKREFS
331
A2
102
}
 70
     0
280
     1
281
     0
  0
BLOCK_RECORD
  5
A5
330
1
100
AcDbSymbolTableRecord
100
AcDbBlockTableRecord
  2
Block_1
340
0
102
{BLKREFS
331
A6
102
}
 70
     0
280
     1
281
     0
  0
BLOCK_RECORD
  5
B6
330
1
100
AcDbSymbolTableRecord
100
AcDbBlockTableRecord
  2
Block_2
340
0
102
{BLKREFS
331
B7
102
}
 70
     0
280
     1
281
     0
  0
BLOCK_RECORD
  5
BA
330
1
100
AcDbSymbolTableRecord
100
AcDbBlockTableRecord
  2
Block_3
340
0
102
{BLKREFS
331
BB
102
}
 70
     0
280
     1
281
     0
  0
ENDTAB
  0
ENDSEC
  0
SECTION
  2
BLOCKS
  0
BLOCK
  5
71
330
70
100
AcDbEntity
  8
0
100
AcDbBlockBegin
  2
*Model_Space
 70
     0
 10
0.0
 20
0.0
 30
0.0
  3
*Model_Space
  1

  0
ENDBLK
  5
72
330
70
100
AcDbEntity
  8
0
100
AcDbBlockEnd
  0
BLOCK
  5
6D
330
6C
100
AcDbEntity
 67
     1
  8
0
100
AcDbBlockBegin
  2
*Paper_Space
 70
     0
 10
0.0
 20
0.0
 30
0.0
  3
*Paper_Space
  1

  0
ENDBLK
  5
6E
330
6C
100
AcDbEntity
 67
     1
  8
0
100
AcDbBlockEnd
  0
BLOCK
  5
75
330
74
100
AcDbEntity
 67
     1
  8
0
100
AcDbBlockBegin
  2
*Paper_Space0
 70
     0
 10
0.0
 20
0.0
 30
0.0
  3
*Paper_Space0
  1

  0
ENDBLK
  5
76
330
74
100
AcDbEntity
 67
     1
  8
0
100
AcDbBlockEnd
  0
BLOCK
  5
A3
330
A1
100
AcDbEntity
  8
0
100
AcDbBlockBegin
  2
Block_0
 70
     0
 10
0.0
 20
0.0
 30
0.0
  3
Block_0
  1

  0
INSERT
  5
A6
330
A1
100
AcDbEntity
  8
0
100
AcDbBlockReference
  2
Block_1
 10
0.0
 20
0.0
 30
0.0
  0
ENDBLK
  5
A4
330
A1
100
AcDbEntity
  8
0
100
AcDbBlockEnd
  0
BLOCK
  5
A7
330
A5
100
AcDbEntity
  8
0
100
AcDbBlockBegin
  2
Block_1
 70
     0
 10
0.0
 20
0.0
 30
0.0
  3
Block_1
  1

  0
SPLINE
  5
A9
330
A5
100
AcDbEntity
  8
0
100
AcDbSpline
210
0.0
220
0.0
230
1.0
 70
     9
 71
     3
 72
    77
 73
    73
 74
     0
 42
0.0000000001
 43
0.0000000001
 40
0.0
 40
0.0
 40
0.0
 40
0.0
 40
1.0
 40
1.0
 40
1.0
 40
2.0
 40
2.0
 40
2.0
 40
3.0
 40
3.0
 40
3.0
 40
4.0
 40
4.0
 40
4.0
 40
5.0
 40
5.0
 40
5.0
 40
6.0
 40
6.0
 40
6.0
 40
7.0
 40
7.0
 40
7.0
 40
8.0
 40
8.0
 40
8.0
 40
9.0
 40
9.0
 40
9.0
 40
10.0
 40
10.0
 40
10.0
 40
11.0
 40
11.0
 40
11.0
 40
12.0
 40
12.0
 40
12.0
 40
13.0
 40
13.0
 40
13.0
 40
14.0
 40
14.0
 40
14.0
 40
15.0
 40
15.0
 40
15.0
 40
16.0
 40
16.0
 40
16.0
 40
17.0
 40
17.0
 40
17.0
 40
18.0
 40
18.0
 40
18.0
 40
19.0
 40
19.0
 40
19.0
 40
20.0
 40
20.0
 40
20.0
 40
21.0
 40
21.0
 40
21.0
 40
22.0
 40
22.0
 40
22.0
 40
23.0
 40
23.0
 40
23.0
 40
24.0
 40
24.0
 40
24.0
 40
24.0
 10
80.39905461314678
 20
358.9307182262396
 30
0.0
 10
80.34393308538277
 20
358.9307182262396
 30
0.0
 10
80.29949135362306
 20
358.9489772323114
 30
0.0
 10
80.26607392741613
 20
358.9856674992293
 30
0.0
 10
80.23231199166067
 20
359.0223577661472
 30
0.0
 10
80.21560327855722
 20
359.0650769501643
 30
0.0
 10
80.21560327855722
 20
359.1141695608291
 30
0.0
 10
80.21560327855722
 20
359.1141695608291
 30
0.0
 10
80.21560327855722
 20
365.1678913475101
 30
0.0
 10
80.21560327855722
 20
365.1678913475101
 30
0.0
 10
80.21560327855722
 20
365.2166394486264
 30
0.0
 10
80.23386228462904
 20
365.2595308874178
 30
0.0
 10
80.27055255154694
 20
365.2962211543357
 30
0.0
 10
80.30724281846486
 20
365.3329114212536
 30
0.0
 10
80.34996200248196
 20
365.3513426820997
 30
0.0
 10
80.39905461314678
 20
365.3513426820997
 30
0.0
 10
80.39905461314678
 20
365.3513426820997
 30
0.0
 10
83.85689695169203
 20
365.3513426820997
 30
0.0
 10
83.85689695169203
 20
365.3513426820997
 30
0.0
 10
83.90581730758258
 20
365.3513426820997
 30
0.0
 10
83.94870874637394
 20
365.3329114212536
 30
0.0
 10
83.98539901329185
 20
365.2962211543357
 30
0.0
 10
84.02208928020975
 20
365.2595308874178
 30
0.0
 10
84.04034828628159
 20
365.2166394486264
 30
0.0
 10
84.04034828628159
 20
365.1678913475101
 30
0.0
 10
84.04034828628159
 20
365.1127698197461
 30
0.0
 10
84.02208928020975
 20
365.0683280879864
 30
0.0
 10
83.98539901329185
 20
365.0349106617795
 30
0.0
 10
83.94870874637394
 20
365.001148726024
 30
0.0
 10
83.90581730758258
 20
364.9844400129206
 30
0.0
 10
83.85689695169203
 20
364.9844400129206
 30
0.0
 10
83.85689695169203
 20
364.9844400129206
 30
0.0
 10
80.55494518385433
 20
364.9844400129206
 30
0.0
 10
80.55494518385433
 20
364.9844400129206
 30
0.0
 10
80.55494518385433
 20
364.9844400129206
 30
0.0
 10
80.58250594773632
 20
365.0211302798385
 30
0.0
 10
80.58250594773632
 20
365.0211302798385
 30
0.0
 10
80.58250594773632
 20
365.0211302798385
 30
0.0
 10
80.58250594773632
 20
362.3794310617489
 30
0.0
 10
80.58250594773632
 20
362.3794310617489
 30
0.0
 10
80.58250594773632
 20
362.3794310617489
 30
0.0
 10
80.54581568081841
 20
362.4528115955847
 30
0.0
 10
80.54581568081841
 20
362.4528115955847
 30
0.0
 10
80.54581568081841
 20
362.4528115955847
 30
0.0
 10
83.4441745125591
 20
362.4528115955847
 30
0.0
 10
83.4441745125591
 20
362.4528115955847
 30
0.0
 10
83.49309486844964
 20
362.4528115955847
 30
0.0
 10
83.535986307241
 20
362.4345525895129
 30
0.0
 10
83.57267657415892
 20
362.397862322595
 30
0.0
 10
83.60936684107683
 20
362.3611720556771
 30
0.0
 10
83.62762584714864
 20
362.3182806168857
 30
0.0
 10
83.62762584714864
 20
362.2693602609952
 30
0.0
 10
83.62762584714864
 20
362.2144109880054
 30
0.0
 10
83.60936684107683
 20
362.1699692562458
 30
0.0
 10
83.57267657415892
 20
362.1363795752645
 30
0.0
 10
83.535986307241
 20
362.1027898942833
 30
0.0
 10
83.49309486844964
 20
362.0859089264056
 30
0.0
 10
83.4441745125591
 20
362.0859089264056
 30
0.0
 10
83.4441745125591
 20
362.0859089264056
 30
0.0
 10
80.52738441997233
 20
362.0859089264056
 30
0.0
 10
80.52738441997233
 20
362.0859089264056
 30
0.0
 10
80.52738441997233
 20
362.0859089264056
 30
0.0
 10
80.58250594773632
 20
362.1592894602414
 30
0.0
 10
80.58250594773632
 20
362.1592894602414
 30
0.0
 10
80.58250594773632
 20
362.1592894602414
 30
0.0
 10
80.58250594773632
 20
359.1141695608291
 30
0.0
 10
80.58250594773632
 20
359.1141695608291
 30
0.0
 10
80.58250594773632
 20
359.0650769501643
 30
0.0
 10
80.5656249798586
 20
359.0223577661472
 30
0.0
 10
80.53203529887742
 20
358.9856674992293
 30
0.0
 10
80.49827336312196
 20
358.9489772323114
 30
0.0
 10
80.4540038861365
 20
358.9307182262396
 30
0.0
 10
80.39905461314678
 20
358.9307182262396
 30
0.0
  0
HATCH
  5
AA
330
A5
100
AcDbEntity
  8
0
 62
    18
420
        0
440
 33554687
100
AcDbHatch
 10
0.0
 20
0.0
 30
0.0
210
0.0
220
0.0
230
1.0
  2
SOLID
 70
     1
 71
     1
 91
        1
 92
        1
 93
        1
 72
     4
 94
        3
 73
     0
 74
     0
 95
       77
 96
       73
 40
0.0
 40
0.0
 40
0.0
 40
0.0
 40
1.0
 40
1.0
 40
1.0
 40
2.0
 40
2.0
 40
2.0
 40
3.0
 40
3.0
 40
3.0
 40
4.0
 40
4.0
 40
4.0
 40
5.0
 40
5.0
 40
5.0
 40
6.0
 40
6.0
 40
6.0
 40
7.0
 40
7.0
 40
7.0
 40
8.0
 40
8.0
 40
8.0
 40
9.0
 40
9.0
 40
9.0
 40
10.0
 40
10.0
 40
10.0
 40
11.0
 40
11.0
 40
11.0
 40
12.0
 40
12.0
 40
12.0
 40
13.0
 40
13.0
 40
13.0
 40
14.0
 40
14.0
 40
14.0
 40
15.0
 40
15.0
 40
15.0
 40
16.0
 40
16.0
 40
16.0
 40
17.0
 40
17.0
 40
17.0
 40
18.0
 40
18.0
 40
18.0
 40
19.0
 40
19.0
 40
19.0
 40
20.0
 40
20.0
 40
20.0
 40
21.0
 40
21.0
 40
21.0
 40
22.0
 40
22.0
 40
22.0
 40
23.0
 40
23.0
 40
23.0
 40
24.0
 40
24.0
 40
24.0
 40
24.0
 10
80.39905461314678
 20
358.9307182262396
 10
80.34393308538277
 20
358.9307182262396
 10
80.29949135362306
 20
358.9489772323114
 10
80.26607392741613
 20
358.9856674992293
 10
80.23231199166067
 20
359.0223577661472
 10
80.21560327855722
 20
359.0650769501643
 10
80.21560327855722
 20
359.1141695608291
 10
80.21560327855722
 20
359.1141695608291
 10
80.21560327855722
 20
365.1678913475101
 10
80.21560327855722
 20
365.1678913475101
 10
80.21560327855722
 20
365.2166394486264
 10
80.23386228462904
 20
365.2595308874178
 10
80.27055255154694
 20
365.2962211543357
 10
80.30724281846486
 20
365.3329114212536
 10
80.34996200248196
 20
365.3513426820997
 10
80.39905461314678
 20
365.3513426820997
 10
80.39905461314678
 20
365.3513426820997
 10
83.85689695169203
 20
365.3513426820997
 10
83.85689695169203
 20
365.3513426820997
 10
83.90581730758258
 20
365.3513426820997
 10
83.94870874637394
 20
365.3329114212536
 10
83.98539901329185
 20
365.2962211543357
 10
84.02208928020975
 20
365.2595308874178
 10
84.04034828628159
 20
365.2166394486264
 10
84.04034828628159
 20
365.1678913475101
 10
84.04034828628159
 20
365.1127698197461
 10
84.02208928020975
 20
365.0683280879864
 10
83.98539901329185
 20
365.0349106617795
 10
83.94870874637394
 20
365.001148726024
 10
83.90581730758258
 20
364.9844400129206
 10
83.85689695169203
 20
364.9844400129206
 10
83.85689695169203
 20
364.9844400129206
 10
80.55494518385433
 20
364.9844400129206
 10
80.55494518385433
 20
364.9844400129206
 10
80.55494518385433
 20
364.9844400129206
 10
80.58250594773632
 20
365.0211302798385
 10
80.58250594773632
 20
365.0211302798385
 10
80.58250594773632
 20
365.0211302798385
 10
80.58250594773632
 20
362.3794310617489
 10
80.58250594773632
 20
362.3794310617489
 10
80.58250594773632
 20
362.3794310617489
 10
80.54581568081841
 20
362.4528115955847
 10
80.54581568081841
 20
362.4528115955847
 10
80.54581568081841
 20
362.4528115955847
 10
83.4441745125591
 20
362.4528115955847
 10
83.4441745125591
 20
362.4528115955847
 10
83.49309486844964
 20
362.4528115955847
 10
83.535986307241
 20
362.4345525895129
 10
83.57267657415892
 20
362.397862322595
 10
83.60936684107683
 20
362.3611720556771
 10
83.62762584714864
 20
362.3182806168857
 10
83.62762584714864
 20
362.2693602609952
 10
83.62762584714864
 20
362.2144109880054
 10
83.60936684107683
 20
362.1699692562458
 10
83.57267657415892
 20
362.1363795752645
 10
83.535986307241
 20
362.1027898942833
 10
83.49309486844964
 20
362.0859089264056
 10
83.4441745125591
 20
362.0859089264056
 10
83.4441745125591
 20
362.0859089264056
 10
80.52738441997233
 20
362.0859089264056
 10
80.52738441997233
 20
362.0859089264056
 10
80.52738441997233
 20
362.0859089264056
 10
80.58250594773632
 20
362.1592894602414
 10
80.58250594773632
 20
362.1592894602414
 10
80.58250594773632
 20
362.1592894602414
 10
80.58250594773632
 20
359.1141695608291
 10
80.58250594773632
 20
359.1141695608291
 10
80.58250594773632
 20
359.0650769501643
 10
80.5656249798586
 20
359.0223577661472
 10
80.53203529887742
 20
358.9856674992293
 10
80.49827336312196
 20
358.9489772323114
 10
80.4540038861365
 20
358.9307182262396
 10
80.39905461314678
 20
358.9307182262396
 97
        0
 97
        1
330
A9
 75
     2
 76
     1
 98
        1
 10
0.0
 20
0.0
450
        0
451
        0
460
0.0
461
0.0
452
        0
462
0.0
453
        0
470

  0
SPLINE
  5
AB
330
A5
100
AcDbEntity
  8
0
100
AcDbSpline
210
0.0
220
0.0
230
1.0
 70
    11
 71
     3
 72
    35
 73
    31
 74
     0
 42
0.0000000001
 43
0.0000000001
 40
0.0
 40
0.0
 40
0.0
 40
0.0
 40
1.0
 40
1.0
 40
1.0
 40
2.0
 40
2.0
 40
2.0
 40
3.0
 40
3.0
 40
3.0
 40
4.0
 40
4.0
 40
4.0
 40
5.0
 40
5.0
 40
5.0
 40
6.0
 40
6.0
 40
6.0
 40
7.0
 40
7.0
 40
7.0
 40
8.0
 40
8.0
 40
8.0
 40
9.0
 40
9.0
 40
9.0
 40
10.0
 40
10.0
 40
10.0
 40
10.0
 10
85.70966930365939
 20
362.1685912180516
 30
0.0
 10
85.70966930365939
 20
362.1685912180516
 30
0.0
 10
88.06680363466734
 20
362.1685912180516
 30
0.0
 10
88.06680363466734
 20
362.1685912180516
 30
0.0
 10
88.31140541412008
 20
362.1928791412226
 30
0.0
 10
88.53774818750098
 20
362.2662596750584
 30
0.0
 10
88.74565970003581
 20
362.3885605647848
 30
0.0
 10
88.95339895779638
 20
362.5108614545112
 30
0.0
 10
89.12306991044493
 20
362.6820827001281
 30
0.0
 10
89.25467255798148
 20
362.9022243016355
 30
0.0
 10
89.38610295074376
 20
363.122365903143
 30
0.0
 10
89.45190427451203
 20
363.3822983575051
 30
0.0
 10
89.45190427451203
 20
363.6818494099476
 30
0.0
 10
89.45190427451203
 20
364.0547809962259
 30
0.0
 10
89.31892358878139
 20
364.3651840994469
 30
0.0
 10
89.0529622173201
 20
364.6128864648364
 30
0.0
 10
88.78682859108455
 20
364.8605888302258
 30
0.0
 10
88.42767738674725
 20
364.9844400129206
 30
0.0
 10
87.97516409475969
 20
364.9844400129206
 30
0.0
 10
87.97516409475969
 20
364.9844400129206
 30
0.0
 10
85.75548907361321
 20
364.9844400129206
 30
0.0
 10
85.75548907361321
 20
364.9844400129206
 30
0.0
 10
85.75548907361321
 20
364.9844400129206
 30
0.0
 10
85.80130884356703
 20
365.0485187889462
 30
0.0
 10
85.80130884356703
 20
365.0485187889462
 30
0.0
 10
85.80130884356703
 20
365.0485187889462
 30
0.0
 10
85.80130884356703
 20
362.0676499203338
 30
0.0
 10
85.80130884356703
 20
362.0676499203338
 30
0.0
 10
85.80130884356703
 20
362.0676499203338
 30
0.0
 10
85.70966930365939
 20
362.1685912180516
 30
0.0
 10
85.70966930365939
 20
362.1685912180516
 30
0.0
  0
SPLINE
  5
AC
330
A5
100
AcDbEntity
  8
0
100
AcDbSpline
210
0.0
220
0.0
230
1.0
 70
     9
 71
     3
 72
   113
 73
   109
 74
     0
 42
0.0000000001
 43
0.0000000001
 40
0.0
 40
0.0
 40
0.0
 40
0.0
 40
1.0
 40
1.0
 40
1.0
 40
2.0
 40
2.0
 40
2.0
 40
3.0
 40
3.0
 40
3.0
 40
4.0
 40
4.0
 40
4.0
 40
5.0
 40
5.0
 40
5.0
 40
6.0
 40
6.0
 40
6.0
 40
7.0
 40
7.0
 40
7.0
 40
8.0
 40
8.0
 40
8.0
 40
9.0
 40
9.0
 40
9.0
 40
10.0
 40
10.0
 40
10.0
 40
11.0
 40
11.0
 40
11.0
 40
12.0
 40
12.0
 40
12.0
 40
13.0
 40
13.0
 40
13.0
 40
14.0
 40
14.0
 40
14.0
 40
15.0
 40
15.0
 40
15.0
 40
16.0
 40
16.0
 40
16.0
 40
17.0
 40
17.0
 40
17.0
 40
18.0
 40
18.0
 40
18.0
 40
19.0
 40
19.0
 40
19.0
 40
20.0
 40
20.0
 40
20.0
 40
21.0
 40
21.0
 40
21.0
 40
22.0
 40
22.0
 40
22.0
 40
23.0
 40
23.0
 40
23.0
 40
24.0
 40
24.0
 40
24.0
 40
25.0
 40
25.0
 40
25.0
 40
26.0
 40
26.0
 40
26.0
 40
27.0
 40
27.0
 40
27.0
 40
28.0
 40
28.0
 40
28.0
 40
29.0
 40
29.0
 40
29.0
 40
30.0
 40
30.0
 40
30.0
 40
31.0
 40
31.0
 40
31.0
 40
32.0
 40
32.0
 40
32.0
 40
33.0
 40
33.0
 40
33.0
 40
34.0
 40
34.0
 40
34.0
 40
35.0
 40
35.0
 40
35.0
 40
36.0
 40
36.0
 40
36.0
 40
36.0
 10
85.60872800594157
 20
358.9307182262396
 30
0.0
 10
85.54757756107838
 20
358.9307182262396
 30
0.0
 10
85.50003524338194
 20
358.9489772323114
 30
0.0
 10
85.46661781717501
 20
358.9856674992293
 30
0.0
 10
85.43285588141957
 20
359.0223577661472
 30
0.0
 10
85.4161471683161
 20
359.0650769501643
 30
0.0
 10
85.4161471683161
 20
359.1141695608291
 30
0.0
 10
85.4161471683161
 20
359.1141695608291
 30
0.0
 10
85.4161471683161
 20
365.1678913475101
 30
0.0
 10
85.4161471683161
 20
365.1678913475101
 30
0.0
 10
85.4161471683161
 20
365.2166394486264
 30
0.0
 10
85.43440617438793
 20
365.2595308874178
 30
0.0
 10
85.47109644130584
 20
365.2962211543357
 30
0.0
 10
85.50778670822374
 20
365.3329114212536
 30
0.0
 10
85.55050589224086
 20
365.3513426820997
 30
0.0
 10
85.59959850290566
 20
365.3513426820997
 30
0.0
 10
85.59959850290566
 20
365.3513426820997
 30
0.0
 10
88.02098386471351
 20
365.3513426820997
 30
0.0
 10
88.02098386471351
 20
365.3513426820997
 30
0.0
 10
88.38168536201918
 20
365.3513426820997
 30
0.0
 10
88.69811738233936
 20
365.2793401864579
 30
0.0
 10
88.9702799256741
 20
365.135679704723
 30
0.0
 10
89.24244246900883
 20
364.9920192229881
 30
0.0
 10
89.45483260567449
 20
364.7947875064576
 30
0.0
 10
89.60779484521959
 20
364.5441568099057
 30
0.0
 10
89.76058482999041
 20
364.2933538585794
 30
0.0
 10
89.83706594976295
 20
364.0089612262721
 30
0.0
 10
89.83706594976295
 20
363.6911511677578
 30
0.0
 10
89.83706594976295
 20
363.4096868666128
 30
0.0
 10
89.78659530090405
 20
363.1559555841243
 30
0.0
 10
89.68582625796049
 20
362.9297850655176
 30
0.0
 10
89.58488496024267
 20
362.7034422921366
 30
0.0
 10
89.44415280967021
 20
362.5155123334163
 30
0.0
 10
89.26380206101738
 20
362.3656506798079
 30
0.0
 10
89.08345131236456
 20
362.2157890261996
 30
0.0
 10
88.87709009279809
 20
362.1072685184142
 30
0.0
 10
88.64471840231798
 20
362.0400891564518
 30
0.0
 10
88.64471840231798
 20
362.0400891564518
 30
0.0
 10
88.22286646014914
 20
362.1134696902876
 30
0.0
 10
88.22286646014914
 20
362.1134696902876
 30
0.0
 10
88.46729598482763
 20
362.1134696902876
 30
0.0
 10
88.69983993008199
 20
362.050768952456
 30
0.0
 10
88.91998153158946
 20
361.925367476793
 30
0.0
 10
89.13995087832265
 20
361.7999660011299
 30
0.0
 10
89.32030162697548
 20
361.6166869213146
 30
0.0
 10
89.46103377754793
 20
361.3751857277986
 30
0.0
 10
89.60159367334613
 20
361.1335122795083
 30
0.0
 10
89.67204587601949
 20
360.8386121059709
 30
0.0
 10
89.67204587601949
 20
360.4899684428636
 30
0.0
 10
89.67204587601949
 20
360.1902451356469
 30
0.0
 10
89.68582625796049
 20
359.9625243240719
 30
0.0
 10
89.71321476706823
 20
359.8066337533643
 30
0.0
 10
89.74077553095023
 20
359.6507431826568
 30
0.0
 10
89.77746579786813
 20
359.536021502998
 30
0.0
 10
89.82328556782196
 20
359.4626409691621
 30
0.0
 10
89.86927759255005
 20
359.3892604353263
 30
0.0
 10
89.92267657257142
 20
359.3312105763998
 30
0.0
 10
89.9838270174346
 20
359.2884913923827
 30
0.0
 10
90.02051728435251
 20
359.2638589596632
 30
0.0
 10
90.04807804823451
 20
359.2333698646188
 30
0.0
 10
90.0665093090806
 20
359.1966795977008
 30
0.0
 10
90.08476831515242
 20
359.1599893307829
 30
0.0
 10
90.08786890108915
 20
359.1170978919916
 30
0.0
 10
90.0756388121165
 20
359.0683497908753
 30
0.0
 10
90.0632364683696
 20
359.0316595239574
 30
0.0
 10
90.04342716932942
 20
359.002548467107
 30
0.0
 10
90.0160386602217
 20
358.9811888750985
 30
0.0
 10
89.98847789633968
 20
358.9596570283156
 30
0.0
 10
89.95936683948933
 20
358.9458766463746
 30
0.0
 10
89.92887774444486
 20
358.9398477292755
 30
0.0
 10
89.89821639462615
 20
358.933646557402
 30
0.0
 10
89.86462671364495
 20
358.9398477292755
 30
0.0
 10
89.82793644672705
 20
358.9582789901216
 30
0.0
 10
89.74232582391859
 20
359.0070270912378
 30
0.0
 10
89.65826549407848
 20
359.0804076250737
 30
0.0
 10
89.57575545720676
 20
359.1784205916291
 30
0.0
 10
89.49324542033503
 20
359.2760890486359
 30
0.0
 10
89.42434351063003
 20
359.4259507022442
 30
0.0
 10
89.36939423764028
 20
359.6278332976798
 30
0.0
 10
89.31427270987629
 20
359.8295436383413
 30
0.0
 10
89.28671194599429
 20
360.1168646018111
 30
0.0
 10
89.28671194599429
 20
360.4899684428636
 30
0.0
 10
89.28671194599429
 20
360.7772894063335
 30
0.0
 10
89.24244246900883
 20
361.0067327656511
 30
0.0
 10
89.15373126026365
 20
361.177954011268
 30
0.0
 10
89.06502005151848
 20
361.3490030021107
 30
0.0
 10
88.95202091960227
 20
361.4806056496472
 30
0.0
 10
88.81438935496655
 20
361.5722451895548
 30
0.0
 10
88.67675779033081
 20
361.6640569842368
 30
0.0
 10
88.52999672265918
 20
361.7250351743257
 30
0.0
 10
88.37410615195162
 20
361.7556965241444
 30
0.0
 10
88.21821558124407
 20
361.7863578739632
 30
0.0
 10
88.0761053924775
 20
361.8016885488725
 30
0.0
 10
87.94760333087769
 20
361.8016885488725
 30
0.0
 10
87.94760333087769
 20
361.8016885488725
 30
0.0
 10
85.71879880669531
 20
361.8016885488725
 30
0.0
 10
85.71879880669531
 20
361.8016885488725
 30
0.0
 10
85.71879880669531
 20
361.8016885488725
 30
0.0
 10
85.80130884356703
 20
361.9117593496263
 30
0.0
 10
85.80130884356703
 20
361.9117593496263
 30
0.0
 10
85.80130884356703
 20
361.9117593496263
 30
0.0
 10
85.80130884356703
 20
359.1141695608291
 30
0.0
 10
85.80130884356703
 20
359.1141695608291
 30
0.0
 10
85.80130884356703
 20
359.0650769501643
 30
0.0
 10
85.78304983749521
 20
359.0223577661472
 30
0.0
 10
85.74635957057729
 20
358.9856674992293
 30
0.0
 10
85.70966930365939
 20
358.9489772323114
 30
0.0
 10
85.6636772789313
 20
358.9307182262396
 30
0.0
 10
85.60872800594157
 20
358.9307182262396
 30
0.0
  0
HATCH
  5
AD
330
A5
100
AcDbEntity
  8
0
 62
    18
420
        0
440
 33554687
100
AcDbHatch
 10
0.0
 20
0.0
 30
0.0
210
0.0
220
0.0
230
1.0
  2
SOLID
 70
     1
 71
     1
 91
        2
 92
        1
 93
        1
 72
     4
 94
        3
 73
     0
 74
     0
 95
       35
 96
       31
 40
0.0
 40
0.0
 40
0.0
 40
0.0
 40
1.0
 40
1.0
 40
1.0
 40
2.0
 40
2.0
 40
2.0
 40
3.0
 40
3.0
 40
3.0
 40
4.0
 40
4.0
 40
4.0
 40
5.0
 40
5.0
 40
5.0
 40
6.0
 40
6.0
 40
6.0
 40
7.0
 40
7.0
 40
7.0
 40
8.0
 40
8.0
 40
8.0
 40
9.0
 40
9.0
 40
9.0
 40
10.0
 40
10.0
 40
10.0
 40
10.0
 10
85.70966930365939
 20
362.1685912180516
 10
85.70966930365939
 20
362.1685912180516
 10
88.06680363466734
 20
362.1685912180516
 10
88.06680363466734
 20
362.1685912180516
 10
88.31140541412008
 20
362.1928791412226
 10
88.53774818750098
 20
362.2662596750584
 10
88.74565970003581
 20
362.3885605647848
 10
88.95339895779638
 20
362.5108614545112
 10
89.12306991044493
 20
362.6820827001281
 10
89.25467255798148
 20
362.9022243016355
 10
89.38610295074376
 20
363.122365903143
 10
89.45190427451203
 20
363.3822983575051
 10
89.45190427451203
 20
363.6818494099476
 10
89.45190427451203
 20
364.0547809962259
 10
89.31892358878139
 20
364.3651840994469
 10
89.0529622173201
 20
364.6128864648364
 10
88.78682859108455
 20
364.8605888302258
 10
88.42767738674725
 20
364.9844400129206
 10
87.97516409475969
 20
364.9844400129206
 10
87.97516409475969
 20
364.9844400129206
 10
85.75548907361321
 20
364.9844400129206
 10
85.75548907361321
 20
364.9844400129206
 10
85.75548907361321
 20
364.9844400129206
 10
85.80130884356703
 20
365.0485187889462
 10
85.80130884356703
 20
365.0485187889462
 10
85.80130884356703
 20
365.0485187889462
 10
85.80130884356703
 20
362.0676499203338
 10
85.80130884356703
 20
362.0676499203338
 10
85.80130884356703
 20
362.0676499203338
 10
85.70966930365939
 20
362.1685912180516
 10
85.70966930365939
 20
362.1685912180516
 97
        0
 97
        1
330
AB
 92
        1
 93
        1
 72
     4
 94
        3
 73
     0
 74
     0
 95
      113
 96
      109
 40
0.0
 40
0.0
 40
0.0
 40
0.0
 40
1.0
 40
1.0
 40
1.0
 40
2.0
 40
2.0
 40
2.0
 40
3.0
 40
3.0
 40
3.0
 40
4.0
 40
4.0
 40
4.0
 40
5.0
 40
5.0
 40
5.0
 40
6.0
 40
6.0
 40
6.0
 40
7.0
 40
7.0
 40
7.0
 40
8.0
 40
8.0
 40
8.0
 40
9.0
 40
9.0
 40
9.0
 40
10.0
 40
10.0
 40
10.0
 40
11.0
 40
11.0
 40
11.0
 40
12.0
 40
12.0
 40
12.0
 40
13.0
 40
13.0
 40
13.0
 40
14.0
 40
14.0
 40
14.0
 40
15.0
 40
15.0
 40
15.0
 40
16.0
 40
16.0
 40
16.0
 40
17.0
 40
17.0
 40
17.0
 40
18.0
 40
18.0
 40
18.0
 40
19.0
 40
19.0
 40
19.0
 40
20.0
 40
20.0
 40
20.0
 40
21.0
 40
21.0
 40
21.0
 40
22.0
 40
22.0
 40
22.0
 40
23.0
 40
23.0
 40
23.0
 40
24.0
 40
24.0
 40
24.0
 40
25.0
 40
25.0
 40
25.0
 40
26.0
 40
26.0
 40
26.0
 40
27.0
 40
27.0
 40
27.0
 40
28.0
 40
28.0
 40
28.0
 40
29.0
 40
29.0
 40
29.0
 40
30.0
 40
30.0
 40
30.0
 40
31.0
 40
31.0
 40
31.0
 40
32.0
 40
32.0
 40
32.0
 40
33.0
 40
33.0
 40
33.0
 40
34.0
 40
34.0
 40
34.0
 40
35.0
 40
35.0
 40
35.0
 40
36.0
 40
36.0
 40
36.0
 40
36.0
 10
85.60872800594157
 20
358.9307182262396
 10
85.54757756107838
 20
358.9307182262396
 10
85.50003524338194
 20
358.9489772323114
 10
85.46661781717501
 20
358.9856674992293
 10
85.43285588141957
 20
359.0223577661472
 10
85.4161471683161
 20
359.0650769501643
 10
85.4161471683161
 20
359.1141695608291
 10
85.4161471683161
 20
359.1141695608291
 10
85.4161471683161
 20
365.1678913475101
 10
85.4161471683161
 20
365.1678913475101
 10
85.4161471683161
 20
365.2166394486264
 10
85.43440617438793
 20
365.2595308874178
 10
85.47109644130584
 20
365.2962211543357
 10
85.50778670822374
 20
365.3329114212536
 10
85.55050589224086
 20
365.3513426820997
 10
85.59959850290566
 20
365.3513426820997
 10
85.59959850290566
 20
365.3513426820997
 10
88.02098386471351
 20
365.3513426820997
 10
88.02098386471351
 20
365.3513426820997
 10
88.38168536201918
 20
365.3513426820997
 10
88.69811738233936
 20
365.2793401864579
 10
88.9702799256741
 20
365.135679704723
 10
89.24244246900883
 20
364.9920192229881
 10
89.45483260567449
 20
364.7947875064576
 10
89.60779484521959
 20
364.5441568099057
 10
89.76058482999041
 20
364.2933538585794
 10
89.83706594976295
 20
364.0089612262721
 10
89.83706594976295
 20
363.6911511677578
 10
89.83706594976295
 20
363.4096868666128
 10
89.78659530090405
 20
363.1559555841243
 10
89.68582625796049
 20
362.9297850655176
 10
89.58488496024267
 20
362.7034422921366
 10
89.44415280967021
 20
362.5155123334163
 10
89.26380206101738
 20
362.3656506798079
 10
89.08345131236456
 20
362.2157890261996
 10
88.87709009279809
 20
362.1072685184142
 10
88.64471840231798
 20
362.0400891564518
 10
88.64471840231798
 20
362.0400891564518
 10
88.22286646014914
 20
362.1134696902876
 10
88.22286646014914
 20
362.1134696902876
 10
88.46729598482763
 20
362.1134696902876
 10
88.69983993008199
 20
362.050768952456
 10
88.91998153158946
 20
361.925367476793
 10
89.13995087832265
 20
361.7999660011299
 10
89.32030162697548
 20
361.6166869213146
 10
89.46103377754793
 20
361.3751857277986
 10
89.60159367334613
 20
361.1335122795083
 10
89.67204587601949
 20
360.8386121059709
 10
89.67204587601949
 20
360.4899684428636
 10
89.67204587601949
 20
360.1902451356469
 10
89.68582625796049
 20
359.9625243240719
 10
89.71321476706823
 20
359.8066337533643
 10
89.74077553095023
 20
359.6507431826568
 10
89.77746579786813
 20
359.536021502998
 10
89.82328556782196
 20
359.4626409691621
 10
89.86927759255005
 20
359.3892604353263
 10
89.92267657257142
 20
359.3312105763998
 10
89.9838270174346
 20
359.2884913923827
 10
90.02051728435251
 20
359.2638589596632
 10
90.04807804823451
 20
359.2333698646188
 10
90.0665093090806
 20
359.1966795977008
 10
90.08476831515242
 20
359.1599893307829
 10
90.08786890108915
 20
359.1170978919916
 10
90.0756388121165
 20
359.0683497908753
 10
90.0632364683696
 20
359.0316595239574
 10
90.04342716932942
 20
359.002548467107
 10
90.0160386602217
 20
358.9811888750985
 10
89.98847789633968
 20
358.9596570283156
 10
89.95936683948933
 20
358.9458766463746
 10
89.92887774444486
 20
358.9398477292755
 10
89.89821639462615
 20
358.933646557402
 10
89.86462671364495
 20
358.9398477292755
 10
89.82793644672705
 20
358.9582789901216
 10
89.74232582391859
 20
359.0070270912378
 10
89.65826549407848
 20
359.0804076250737
 10
89.57575545720676
 20
359.1784205916291
 10
89.49324542033503
 20
359.2760890486359
 10
89.42434351063003
 20
359.4259507022442
 10
89.36939423764028
 20
359.6278332976798
 10
89.31427270987629
 20
359.8295436383413
 10
89.28671194599429
 20
360.1168646018111
 10
89.28671194599429
 20
360.4899684428636
 10
89.28671194599429
 20
360.7772894063335
 10
89.24244246900883
 20
361.0067327656511
 10
89.15373126026365
 20
361.177954011268
 10
89.06502005151848
 20
361.3490030021107
 10
88.95202091960227
 20
361.4806056496472
 10
88.81438935496655
 20
361.5722451895548
 10
88.67675779033081
 20
361.6640569842368
 10
88.52999672265918
 20
361.7250351743257
 10
88.37410615195162
 20
361.7556965241444
 10
88.21821558124407
 20
361.7863578739632
 10
88.0761053924775
 20
361.8016885488725
 10
87.94760333087769
 20
361.8016885488725
 10
87.94760333087769
 20
361.8016885488725
 10
85.71879880669531
 20
361.8016885488725
 10
85.71879880669531
 20
361.8016885488725
 10
85.71879880669531
 20
361.8016885488725
 10
85.80130884356703
 20
361.9117593496263
 10
85.80130884356703
 20
361.9117593496263
 10
85.80130884356703
 20
361.9117593496263
 10
85.80130884356703
 20
359.1141695608291
 10
85.80130884356703
 20
359.1141695608291
 10
85.80130884356703
 20
359.0650769501643
 10
85.78304983749521
 20
359.0223577661472
 10
85.74635957057729
 20
358.9856674992293
 10
85.70966930365939
 20
358.9489772323114
 10
85.6636772789313
 20
358.9307182262396
 10
85.60872800594157
 20
358.9307182262396
 97
        0
 97
        1
330
AC
 75
     2
 76
     1
 98
        1
 10
0.0
 20
0.0
450
        0
451
        0
460
0.0
461
0.0
452
        0
462
0.0
453
        0
470

  0
SPLINE
  5
AE
330
A5
100
AcDbEntity
  8
0
100
AcDbSpline
210
0.0
220
0.0
230
1.0
 70
    11
 71
     3
 72
    41
 73
    37
 74
     0
 42
0.0000000001
 43
0.0000000001
 40
0.0
 40
0.0
 40
0.0
 40
0.0
 40
1.0
 40
1.0
 40
1.0
 40
2.0
 40
2.0
 40
2.0
 40
3.0
 40
3.0
 40
3.0
 40
4.0
 40
4.0
 40
4.0
 40
5.0
 40
5.0
 40
5.0
 40
6.0
 40
6.0
 40
6.0
 40
7.0
 40
7.0
 40
7.0
 40
8.0
 40
8.0
 40
8.0
 40
9.0
 40
9.0
 40
9.0
 40
10.0
 40
10.0
 40
10.0
 40
11.0
 40
11.0
 40
11.0
 40
12.0
 40
12.0
 40
12.0
 40
12.0
 10
96.69797360863801
 20
362.1410304541696
 30
0.0
 10
96.69797360863801
 20
362.7280747248562
 30
0.0
 10
96.58325192897919
 20
363.2417384617069
 30
0.0
 10
96.35398082443581
 20
363.6818494099476
 30
0.0
 10
96.12470971989244
 20
364.1221326129626
 30
0.0
 10
95.80965573776634
 20
364.4645751041964
 30
0.0
 10
95.40916338760604
 20
364.7091768836491
 30
0.0
 10
95.00867103744575
 20
364.9537786631019
 30
0.0
 10
94.54547794945391
 20
365.0760795528282
 30
0.0
 10
94.01958412363052
 20
365.0760795528282
 30
0.0
 10
93.49989146968059
 20
365.0760795528282
 30
0.0
 10
93.03824867465712
 20
364.9537786631019
 30
0.0
 10
92.63465573856008
 20
364.7091768836491
 30
0.0
 10
92.23106280246307
 20
364.4645751041964
 30
0.0
 10
91.91463078214288
 20
364.1221326129626
 30
0.0
 10
91.68535967759948
 20
363.6818494099476
 30
0.0
 10
91.45591631828187
 20
363.2417384617069
 30
0.0
 10
91.34136689339731
 20
362.7280747248562
 30
0.0
 10
91.34136689339731
 20
362.1410304541696
 30
0.0
 10
91.34136689339731
 20
361.5539861834831
 30
0.0
 10
91.45591631828187
 20
361.0403224466323
 30
0.0
 10
91.68535967759948
 20
360.6000392436174
 30
0.0
 10
91.91463078214288
 20
360.1597560406024
 30
0.0
 10
92.23106280246307
 20
359.8173135493686
 30
0.0
 10
92.63465573856008
 20
359.5727117699159
 30
0.0
 10
93.03824867465712
 20
359.3281099904631
 30
0.0
 10
93.49989146968059
 20
359.2058091007368
 30
0.0
 10
94.01958412363052
 20
359.2058091007368
 30
0.0
 10
94.54547794945391
 20
359.2058091007368
 30
0.0
 10
95.00867103744575
 20
359.3281099904631
 30
0.0
 10
95.40916338760604
 20
359.5727117699159
 30
0.0
 10
95.80965573776634
 20
359.8173135493686
 30
0.0
 10
96.12470971989244
 20
360.1597560406024
 30
0.0
 10
96.35398082443581
 20
360.6000392436174
 30
0.0
 10
96.58325192897919
 20
361.0403224466323
 30
0.0
 10
96.69797360863801
 20
361.5539861834831
 30
0.0
 10
96.69797360863801
 20
362.1410304541696
 30
0.0
  0
SPLINE
  5
AF
330
A5
100
AcDbEntity
  8
0
100
AcDbSpline
210
0.0
220
0.0
230
1.0
 70
     9
 71
     3
 72
    53
 73
    49
 74
     0
 42
0.0000000001
 43
0.0000000001
 40
0.0
 40
0.0
 40
0.0
 40
0.0
 40
1.0
 40
1.0
 40
1.0
 40
2.0
 40
2.0
 40
2.0
 40
3.0
 40
3.0
 40
3.0
 40
4.0
 40
4.0
 40
4.0
 40
5.0
 40
5.0
 40
5.0
 40
6.0
 40
6.0
 40
6.0
 40
7.0
 40
7.0
 40
7.0
 40
8.0
 40
8.0
 40
8.0
 40
9.0
 40
9.0
 40
9.0
 40
10.0
 40
10.0
 40
10.0
 40
11.0
 40
11.0
 40
11.0
 40
12.0
 40
12.0
 40
12.0
 40
13.0
 40
13.0
 40
13.0
 40
14.0
 40
14.0
 40
14.0
 40
15.0
 40
15.0
 40
15.0
 40
16.0
 40
16.0
 40
16.0
 40
16.0
 10
97.08313528388893
 20
362.1410304541696
 30
0.0
 10
97.08313528388893
 20
361.6516546404899
 30
0.0
 10
97.00820445708476
 20
361.2055147751501
 30
0.0
 10
96.8583428034764
 20
360.801921839053
 30
0.0
 10
96.70848114986803
 20
360.398328902956
 30
0.0
 10
96.49609101320237
 20
360.0496852398487
 30
0.0
 10
96.22100013870516
 20
359.7561631045055
 30
0.0
 10
95.94573700943371
 20
359.4626409691621
 30
0.0
 10
95.6215535242717
 20
359.2364704505555
 30
0.0
 10
95.24862193799341
 20
359.0774792939112
 30
0.0
 10
94.8756903517151
 20
358.9184881372669
 30
0.0
 10
94.46589624374464
 20
358.8390786863319
 30
0.0
 10
94.01958412363052
 20
358.8390786863319
 30
0.0
 10
93.5732720035164
 20
358.8390786863319
 30
0.0
 10
93.16347789554594
 20
358.9184881372669
 30
0.0
 10
92.79054630926763
 20
359.0774792939112
 30
0.0
 10
92.41744246821509
 20
359.2364704505555
 30
0.0
 10
92.09343123782735
 20
359.4626409691621
 30
0.0
 10
91.81834036333013
 20
359.7561631045055
 30
0.0
 10
91.54307723405869
 20
360.0496852398487
 30
0.0
 10
91.33051484261876
 20
360.398328902956
 30
0.0
 10
91.18082544378465
 20
360.801921839053
 30
0.0
 10
91.03096379017628
 20
361.2055147751501
 30
0.0
 10
90.95603296337211
 20
361.6516546404899
 30
0.0
 10
90.95603296337211
 20
362.1410304541696
 30
0.0
 10
90.95603296337211
 20
362.6300617583008
 30
0.0
 10
91.03096379017628
 20
363.0765461331892
 30
0.0
 10
91.18082544378465
 20
363.4801390692862
 30
0.0
 10
91.33051484261876
 20
363.8837320053832
 30
0.0
 10
91.54307723405869
 20
364.2322034137162
 30
0.0
 10
91.81834036333013
 20
364.5257255490595
 30
0.0
 10
92.09343123782735
 20
364.8192476844029
 30
0.0
 10
92.41744246821509
 20
365.0454182030095
 30
0.0
 10
92.79054630926763
 20
365.204581614428
 30
0.0
 10
93.16347789554594
 20
365.363400516298
 30
0.0
 10
93.5732720035164
 20
365.4429822220074
 30
0.0
 10
94.01958412363052
 20
365.4429822220074
 30
0.0
 10
94.46589624374464
 20
365.4429822220074
 30
0.0
 10
94.8756903517151
 20
365.363400516298
 30
0.0
 10
95.24862193799341
 20
365.204581614428
 30
0.0
 10
95.6215535242717
 20
365.0454182030095
 30
0.0
 10
95.94573700943371
 20
364.8192476844029
 30
0.0
 10
96.22100013870516
 20
364.5257255490595
 30
0.0
 10
96.49609101320237
 20
364.2322034137162
 30
0.0
 10
96.70848114986803
 20
363.8837320053832
 30
0.0
 10
96.8583428034764
 20
363.4801390692862
 30
0.0
 10
97.00820445708476
 20
363.0765461331892
 30
0.0
 10
97.08313528388893
 20
362.6300617583008
 30
0.0
 10
97.08313528388893
 20
362.1410304541696
 30
0.0
  0
HATCH
  5
B0
330
A5
100
AcDbEntity
  8
0
 62
    18
420
        0
440
 33554687
100
AcDbHatch
 10
0.0
 20
0.0
 30
0.0
210
0.0
220
0.0
230
1.0
  2
SOLID
 70
     1
 71
     1
 91
        2
 92
        1
 93
        1
 72
     4
 94
        3
 73
     0
 74
     0
 95
       41
 96
       37
 40
0.0
 40
0.0
 40
0.0
 40
0.0
 40
1.0
 40
1.0
 40
1.0
 40
2.0
 40
2.0
 40
2.0
 40
3.0
 40
3.0
 40
3.0
 40
4.0
 40
4.0
 40
4.0
 40
5.0
 40
5.0
 40
5.0
 40
6.0
 40
6.0
 40
6.0
 40
7.0
 40
7.0
 40
7.0
 40
8.0
 40
8.0
 40
8.0
 40
9.0
 40
9.0
 40
9.0
 40
10.0
 40
10.0
 40
10.0
 40
11.0
 40
11.0
 40
11.0
 40
12.0
 40
12.0
 40
12.0
 40
12.0
 10
96.69797360863801
 20
362.1410304541696
 10
96.69797360863801
 20
362.7280747248562
 10
96.58325192897919
 20
363.2417384617069
 10
96.35398082443581
 20
363.6818494099476
 10
96.12470971989244
 20
364.1221326129626
 10
95.80965573776634
 20
364.4645751041964
 10
95.40916338760604
 20
364.7091768836491
 10
95.00867103744575
 20
364.9537786631019
 10
94.54547794945391
 20
365.0760795528282
 10
94.01958412363052
 20
365.0760795528282
 10
93.49989146968059
 20
365.0760795528282
 10
93.03824867465712
 20
364.9537786631019
 10
92.63465573856008
 20
364.7091768836491
 10
92.23106280246307
 20
364.4645751041964
 10
91.91463078214288
 20
364.1221326129626
 10
91.68535967759948
 20
363.6818494099476
 10
91.45591631828187
 20
363.2417384617069
 10
91.34136689339731
 20
362.7280747248562
 10
91.34136689339731
 20
362.1410304541696
 10
91.34136689339731
 20
361.5539861834831
 10
91.45591631828187
 20
361.0403224466323
 10
91.68535967759948
 20
360.6000392436174
 10
91.91463078214288
 20
360.1597560406024
 10
92.23106280246307
 20
359.8173135493686
 10
92.63465573856008
 20
359.5727117699159
 10
93.03824867465712
 20
359.3281099904631
 10
93.49989146968059
 20
359.2058091007368
 10
94.01958412363052
 20
359.2058091007368
 10
94.54547794945391
 20
359.2058091007368
 10
95.00867103744575
 20
359.3281099904631
 10
95.40916338760604
 20
359.5727117699159
 10
95.80965573776634
 20
359.8173135493686
 10
96.12470971989244
 20
360.1597560406024
 10
96.35398082443581
 20
360.6000392436174
 10
96.58325192897919
 20
361.0403224466323
 10
96.69797360863801
 20
361.5539861834831
 10
96.69797360863801
 20
362.1410304541696
 97
        0
 97
        1
330
AE
 92
        1
 93
        1
 72
     4
 94
        3
 73
     0
 74
     0
 95
       53
 96
       49
 40
0.0
 40
0.0
 40
0.0
 40
0.0
 40
1.0
 40
1.0
 40
1.0
 40
2.0
 40
2.0
 40
2.0
 40
3.0
 40
3.0
 40
3.0
 40
4.0
 40
4.0
 40
4.0
 40
5.0
 40
5.0
 40
5.0
 40
6.0
 40
6.0
 40
6.0
 40
7.0
 40
7.0
 40
7.0
 40
8.0
 40
8.0
 40
8.0
 40
9.0
 40
9.0
 40
9.0
 40
10.0
 40
10.0
 40
10.0
 40
11.0
 40
11.0
 40
11.0
 40
12.0
 40
12.0
 40
12.0
 40
13.0
 40
13.0
 40
13.0
 40
14.0
 40
14.0
 40
14.0
 40
15.0
 40
15.0
 40
15.0
 40
16.0
 40
16.0
 40
16.0
 40
16.0
 10
97.08313528388893
 20
362.1410304541696
 10
97.08313528388893
 20
361.6516546404899
 10
97.00820445708476
 20
361.2055147751501
 10
96.8583428034764
 20
360.801921839053
 10
96.70848114986803
 20
360.398328902956
 10
96.49609101320237
 20
360.0496852398487
 10
96.22100013870516
 20
359.7561631045055
 10
95.94573700943371
 20
359.4626409691621
 10
95.6215535242717
 20
359.2364704505555
 10
95.24862193799341
 20
359.0774792939112
 10
94.8756903517151
 20
358.9184881372669
 10
94.46589624374464
 20
358.8390786863319
 10
94.01958412363052
 20
358.8390786863319
 10
93.5732720035164
 20
358.8390786863319
 10
93.16347789554594
 20
358.9184881372669
 10
92.79054630926763
 20
359.0774792939112
 10
92.41744246821509
 20
359.2364704505555
 10
92.09343123782735
 20
359.4626409691621
 10
91.81834036333013
 20
359.7561631045055
 10
91.54307723405869
 20
360.0496852398487
 10
91.33051484261876
 20
360.398328902956
 10
91.18082544378465
 20
360.801921839053
 10
91.03096379017628
 20
361.2055147751501
 10
90.95603296337211
 20
361.6516546404899
 10
90.95603296337211
 20
362.1410304541696
 10
90.95603296337211
 20
362.6300617583008
 10
91.03096379017628
 20
363.0765461331892
 10
91.18082544378465
 20
363.4801390692862
 10
91.33051484261876
 20
363.8837320053832
 10
91.54307723405869
 20
364.2322034137162
 10
91.81834036333013
 20
364.5257255490595
 10
92.09343123782735
 20
364.8192476844029
 10
92.41744246821509
 20
365.0454182030095
 10
92.79054630926763
 20
365.204581614428
 10
93.16347789554594
 20
365.363400516298
 10
93.5732720035164
 20
365.4429822220074
 10
94.01958412363052
 20
365.4429822220074
 10
94.46589624374464
 20
365.4429822220074
 10
94.8756903517151
 20
365.363400516298
 10
95.24862193799341
 20
365.204581614428
 10
95.6215535242717
 20
365.0454182030095
 10
95.94573700943371
 20
364.8192476844029
 10
96.22100013870516
 20
364.5257255490595
 10
96.49609101320237
 20
364.2322034137162
 10
96.70848114986803
 20
363.8837320053832
 10
96.8583428034764
 20
363.4801390692862
 10
97.00820445708476
 20
363.0765461331892
 10
97.08313528388893
 20
362.6300617583008
 10
97.08313528388893
 20
362.1410304541696
 97
        0
 97
        1
330
AF
 75
     2
 76
     1
 98
        1
 10
0.0
 20
0.0
450
        0
451
        0
460
0.0
461
0.0
452
        0
462
0.0
453
        0
470

  0
SPLINE
  5
B1
330
A5
100
AcDbEntity
  8
0
100
AcDbSpline
210
0.0
220
0.0
230
1.0
 70
     9
 71
     3
 72
    77
 73
    73
 74
     0
 42
0.0000000001
 43
0.0000000001
 40
0.0
 40
0.0
 40
0.0
 40
0.0
 40
1.0
 40
1.0
 40
1.0
 40
2.0
 40
2.0
 40
2.0
 40
3.0
 40
3.0
 40
3.0
 40
4.0
 40
4.0
 40
4.0
 40
5.0
 40
5.0
 40
5.0
 40
6.0
 40
6.0
 40
6.0
 40
7.0
 40
7.0
 40
7.0
 40
8.0
 40
8.0
 40
8.0
 40
9.0
 40
9.0
 40
9.0
 40
10.0
 40
10.0
 40
10.0
 40
11.0
 40
11.0
 40
11.0
 40
12.0
 40
12.0
 40
12.0
 40
13.0
 40
13.0
 40
13.0
 40
14.0
 40
14.0
 40
14.0
 40
15.0
 40
15.0
 40
15.0
 40
16.0
 40
16.0
 40
16.0
 40
17.0
 40
17.0
 40
17.0
 40
18.0
 40
18.0
 40
18.0
 40
19.0
 40
19.0
 40
19.0
 40
20.0
 40
20.0
 40
20.0
 40
21.0
 40
21.0
 40
21.0
 40
22.0
 40
22.0
 40
22.0
 40
23.0
 40
23.0
 40
23.0
 40
24.0
 40
24.0
 40
24.0
 40
24.0
 10
103.0999945488778
 20
365.3513426820997
 30
0.0
 10
103.1551160766418
 20
365.3513426820997
 30
0.0
 10
103.1978352606589
 20
365.3342894594477
 30
0.0
 10
103.2284966104776
 20
365.3008720332408
 30
0.0
 10
103.258985705522
 20
365.2671100974853
 30
0.0
 10
103.2743163804314
 20
365.2259412064366
 30
0.0
 10
103.2743163804314
 20
365.1770208505461
 30
0.0
 10
103.2743163804314
 20
365.1770208505461
 30
0.0
 10
103.2743163804314
 20
359.1324285669009
 30
0.0
 10
103.2743163804314
 20
359.1324285669009
 30
0.0
 10
103.2743163804314
 20
359.0650769501643
 30
0.0
 10
103.254334826617
 20
359.0147785560796
 30
0.0
 10
103.2147162285366
 20
358.9811888750985
 30
0.0
 10
103.1749253756819
 20
358.947426939343
 30
0.0
 10
103.1306558986965
 20
358.9307182262396
 30
0.0
 10
103.0817355428059
 20
358.9307182262396
 30
0.0
 10
103.0572753648607
 20
358.9307182262396
 30
0.0
 10
103.031264893947
 20
358.9367471433387
 30
0.0
 10
103.003704130065
 20
358.9489772323114
 30
0.0
 10
102.976143366183
 20
358.961207321284
 30
0.0
 10
102.9532334812061
 20
358.9796385821301
 30
0.0
 10
102.9349744751343
 20
359.0040987600754
 30
0.0
 10
102.9349744751343
 20
359.0040987600754
 30
0.0
 10
98.67907576743093
 20
364.8192476844029
 30
0.0
 10
98.67907576743093
 20
364.8192476844029
 30
0.0
 10
98.67907576743093
 20
364.8192476844029
 30
0.0
 10
98.80740557425649
 20
364.8834987152028
 30
0.0
 10
98.80740557425649
 20
364.8834987152028
 30
0.0
 10
98.80740557425649
 20
364.8834987152028
 30
0.0
 10
98.80740557425649
 20
359.0866087969471
 30
0.0
 10
98.80740557425649
 20
359.0866087969471
 30
0.0
 10
98.80740557425649
 20
359.0437173581557
 30
0.0
 10
98.79052460637877
 20
359.0070270912378
 30
0.0
 10
98.75693492539758
 20
358.9765379961934
 30
0.0
 10
98.7233452444164
 20
358.9458766463746
 30
0.0
 10
98.6820040985934
 20
358.9307182262396
 30
0.0
 10
98.6332559974771
 20
358.9307182262396
 30
0.0
 10
98.57813446971311
 20
358.9307182262396
 30
0.0
 10
98.53524303092175
 20
358.9458766463746
 30
0.0
 10
98.50475393587728
 20
358.9765379961934
 30
0.0
 10
98.47409258605857
 20
359.0070270912378
 30
0.0
 10
98.45893416592346
 20
359.0437173581557
 30
0.0
 10
98.45893416592346
 20
359.0866087969471
 30
0.0
 10
98.45893416592346
 20
359.0866087969471
 30
0.0
 10
98.45893416592346
 20
365.1678913475101
 30
0.0
 10
98.45893416592346
 20
365.1678913475101
 30
0.0
 10
98.45893416592346
 20
365.2350707094725
 30
0.0
 10
98.4771931719953
 20
365.2824407723947
 30
0.0
 10
98.5138834389132
 20
365.3100015362767
 30
0.0
 10
98.55057370583111
 20
365.3375623001587
 30
0.0
 10
98.58726397274903
 20
365.3513426820997
 30
0.0
 10
98.62395423966693
 20
365.3513426820997
 30
0.0
 10
98.64841441761221
 20
365.3513426820997
 30
0.0
 10
98.67287459555747
 20
365.3466918031946
 30
0.0
 10
98.69733477350276
 20
365.3375623001587
 30
0.0
 10
98.72179495144804
 20
365.3282605423485
 30
0.0
 10
98.74315454345659
 20
365.3113795744708
 30
0.0
 10
98.76158580430267
 20
365.2870916512998
 30
0.0
 10
98.76158580430267
 20
365.2870916512998
 30
0.0
 10
102.9992255059342
 20
359.5086329938902
 30
0.0
 10
102.9992255059342
 20
359.5086329938902
 30
0.0
 10
102.9992255059342
 20
359.5086329938902
 30
0.0
 10
102.9258449720984
 20
359.3251816593006
 30
0.0
 10
102.9258449720984
 20
359.3251816593006
 30
0.0
 10
102.9258449720984
 20
359.3251816593006
 30
0.0
 10
102.9258449720984
 20
365.1770208505461
 30
0.0
 10
102.9258449720984
 20
365.1770208505461
 30
0.0
 10
102.9258449720984
 20
365.2259412064366
 30
0.0
 10
102.9441039781702
 20
365.2671100974853
 30
0.0
 10
102.9807942450881
 20
365.3008720332408
 30
0.0
 10
103.017484512006
 20
365.3342894594477
 30
0.0
 10
103.0572753648607
 20
365.3513426820997
 30
0.0
 10
103.0999945488778
 20
365.3513426820997
 30
0.0
  0
HATCH
  5
B2
330
A5
100
AcDbEntity
  8
0
 62
    18
420
        0
440
 33554687
100
AcDbHatch
 10
0.0
 20
0.0
 30
0.0
210
0.0
220
0.0
230
1.0
  2
SOLID
 70
     1
 71
     1
 91
        1
 92
        1
 93
        1
 72
     4
 94
        3
 73
     0
 74
     0
 95
       77
 96
       73
 40
0.0
 40
0.0
 40
0.0
 40
0.0
 40
1.0
 40
1.0
 40
1.0
 40
2.0
 40
2.0
 40
2.0
 40
3.0
 40
3.0
 40
3.0
 40
4.0
 40
4.0
 40
4.0
 40
5.0
 40
5.0
 40
5.0
 40
6.0
 40
6.0
 40
6.0
 40
7.0
 40
7.0
 40
7.0
 40
8.0
 40
8.0
 40
8.0
 40
9.0
 40
9.0
 40
9.0
 40
10.0
 40
10.0
 40
10.0
 40
11.0
 40
11.0
 40
11.0
 40
12.0
 40
12.0
 40
12.0
 40
13.0
 40
13.0
 40
13.0
 40
14.0
 40
14.0
 40
14.0
 40
15.0
 40
15.0
 40
15.0
 40
16.0
 40
16.0
 40
16.0
 40
17.0
 40
17.0
 40
17.0
 40
18.0
 40
18.0
 40
18.0
 40
19.0
 40
19.0
 40
19.0
 40
20.0
 40
20.0
 40
20.0
 40
21.0
 40
21.0
 40
21.0
 40
22.0
 40
22.0
 40
22.0
 40
23.0
 40
23.0
 40
23.0
 40
24.0
 40
24.0
 40
24.0
 40
24.0
 10
103.0999945488778
 20
365.3513426820997
 10
103.1551160766418
 20
365.3513426820997
 10
103.1978352606589
 20
365.3342894594477
 10
103.2284966104776
 20
365.3008720332408
 10
103.258985705522
 20
365.2671100974853
 10
103.2743163804314
 20
365.2259412064366
 10
103.2743163804314
 20
365.1770208505461
 10
103.2743163804314
 20
365.1770208505461
 10
103.2743163804314
 20
359.1324285669009
 10
103.2743163804314
 20
359.1324285669009
 10
103.2743163804314
 20
359.0650769501643
 10
103.254334826617
 20
359.0147785560796
 10
103.2147162285366
 20
358.9811888750985
 10
103.1749253756819
 20
358.947426939343
 10
103.1306558986965
 20
358.9307182262396
 10
103.0817355428059
 20
358.9307182262396
 10
103.0572753648607
 20
358.9307182262396
 10
103.031264893947
 20
358.9367471433387
 10
103.003704130065
 20
358.9489772323114
 10
102.976143366183
 20
358.961207321284
 10
102.9532334812061
 20
358.9796385821301
 10
102.9349744751343
 20
359.0040987600754
 10
102.9349744751343
 20
359.0040987600754
 10
98.67907576743093
 20
364.8192476844029
 10
98.67907576743093
 20
364.8192476844029
 10
98.67907576743093
 20
364.8192476844029
 10
98.80740557425649
 20
364.8834987152028
 10
98.80740557425649
 20
364.8834987152028
 10
98.80740557425649
 20
364.8834987152028
 10
98.80740557425649
 20
359.0866087969471
 10
98.80740557425649
 20
359.0866087969471
 10
98.80740557425649
 20
359.0437173581557
 10
98.79052460637877
 20
359.0070270912378
 10
98.75693492539758
 20
358.9765379961934
 10
98.7233452444164
 20
358.9458766463746
 10
98.6820040985934
 20
358.9307182262396
 10
98.6332559974771
 20
358.9307182262396
 10
98.57813446971311
 20
358.9307182262396
 10
98.53524303092175
 20
358.9458766463746
 10
98.50475393587728
 20
358.9765379961934
 10
98.47409258605857
 20
359.0070270912378
 10
98.45893416592346
 20
359.0437173581557
 10
98.45893416592346
 20
359.0866087969471
 10
98.45893416592346
 20
359.0866087969471
 10
98.45893416592346
 20
365.1678913475101
 10
98.45893416592346
 20
365.1678913475101
 10
98.45893416592346
 20
365.2350707094725
 10
98.4771931719953
 20
365.2824407723947
 10
98.5138834389132
 20
365.3100015362767
 10
98.55057370583111
 20
365.3375623001587
 10
98.58726397274903
 20
365.3513426820997
 10
98.62395423966693
 20
365.3513426820997
 10
98.64841441761221
 20
365.3513426820997
 10
98.67287459555747
 20
365.3466918031946
 10
98.69733477350276
 20
365.3375623001587
 10
98.72179495144804
 20
365.3282605423485
 10
98.74315454345659
 20
365.3113795744708
 10
98.76158580430267
 20
365.2870916512998
 10
98.76158580430267
 20
365.2870916512998
 10
102.9992255059342
 20
359.5086329938902
 10
102.9992255059342
 20
359.5086329938902
 10
102.9992255059342
 20
359.5086329938902
 10
102.9258449720984
 20
359.3251816593006
 10
102.9258449720984
 20
359.3251816593006
 10
102.9258449720984
 20
359.3251816593006
 10
102.9258449720984
 20
365.1770208505461
 10
102.9258449720984
 20
365.1770208505461
 10
102.9258449720984
 20
365.2259412064366
 10
102.9441039781702
 20
365.2671100974853
 10
102.9807942450881
 20
365.3008720332408
 10
103.017484512006
 20
365.3342894594477
 10
103.0572753648607
 20
365.3513426820997
 10
103.0999945488778
 20
365.3513426820997
 97
        0
 97
        1
330
B1
 75
     2
 76
     1
 98
        1
 10
0.0
 20
0.0
450
        0
451
        0
460
0.0
461
0.0
452
        0
462
0.0
453
        0
470

  0
SPLINE
  5
B3
330
A5
100
AcDbEntity
  8
0
100
AcDbSpline
210
0.0
220
0.0
230
1.0
 70
     9
 71
     3
 72
    26
 73
    22
 74
     0
 42
0.0000000001
 43
0.0000000001
 40
0.0
 40
0.0
 40
0.0
 40
0.0
 40
1.0
 40
1.0
 40
1.0
 40
2.0
 40
2.0
 40
2.0
 40
3.0
 40
3.0
 40
3.0
 40
4.0
 40
4.0
 40
4.0
 40
5.0
 40
5.0
 40
5.0
 40
6.0
 40
6.0
 40
6.0
 40
7.0
 40
7.0
 40
7.0
 40
7.0
 10
106.9247395566021
 20
358.9307182262396
 30
0.0
 10
106.8696180288381
 20
358.9307182262396
 30
0.0
 10
106.8251762970784
 20
358.9489772323114
 30
0.0
 10
106.7917588708715
 20
358.9856674992293
 30
0.0
 10
106.757996935116
 20
359.0223577661472
 30
0.0
 10
106.7411159672383
 20
359.0650769501643
 30
0.0
 10
106.7411159672383
 20
359.1141695608291
 30
0.0
 10
106.7411159672383
 20
359.1141695608291
 30
0.0
 10
106.7411159672383
 20
365.1312010805922
 30
0.0
 10
106.7411159672383
 20
365.1312010805922
 30
0.0
 10
106.7411159672383
 20
365.1312010805922
 30
0.0
 10
107.1080186364174
 20
365.1312010805922
 30
0.0
 10
107.1080186364174
 20
365.1312010805922
 30
0.0
 10
107.1080186364174
 20
365.1312010805922
 30
0.0
 10
107.1080186364174
 20
359.1141695608291
 30
0.0
 10
107.1080186364174
 20
359.1141695608291
 30
0.0
 10
107.1080186364174
 20
359.0650769501643
 30
0.0
 10
107.0897596303456
 20
359.0223577661472
 30
0.0
 10
107.0528971086534
 20
358.9856674992293
 30
0.0
 10
107.0163790965098
 20
358.9489772323114
 30
0.0
 10
106.9736599124927
 20
358.9307182262396
 30
0.0
 10
106.9247395566021
 20
358.9307182262396
 30
0.0
  0
SPLINE
  5
B4
330
A5
100
AcDbEntity
  8
0
100
AcDbSpline
210
0.0
220
0.0
230
1.0
 70
     9
 71
     3
 72
    35
 73
    31
 74
     0
 42
0.0000000001
 43
0.0000000001
 40
0.0
 40
0.0
 40
0.0
 40
0.0
 40
1.0
 40
1.0
 40
1.0
 40
2.0
 40
2.0
 40
2.0
 40
3.0
 40
3.0
 40
3.0
 40
4.0
 40
4.0
 40
4.0
 40
5.0
 40
5.0
 40
5.0
 40
6.0
 40
6.0
 40
6.0
 40
7.0
 40
7.0
 40
7.0
 40
8.0
 40
8.0
 40
8.0
 40
9.0
 40
9.0
 40
9.0
 40
10.0
 40
10.0
 40
10.0
 40
10.0
 10
104.6959350324197
 20
365.0026990189924
 30
0.0
 10
104.6468424217549
 20
365.0026990189924
 30
0.0
 10
104.6041232377378
 20
365.0195799868701
 30
0.0
 10
104.5674329708199
 20
365.0531696678513
 30
0.0
 10
104.530742703902
 20
365.0867593488325
 30
0.0
 10
104.5124836978302
 20
365.1279282398812
 30
0.0
 10
104.5124836978302
 20
365.1770208505461
 30
0.0
 10
104.5124836978302
 20
365.2259412064366
 30
0.0
 10
104.530742703902
 20
365.2671100974853
 30
0.0
 10
104.5674329708199
 20
365.3008720332408
 30
0.0
 10
104.6041232377378
 20
365.3342894594477
 30
0.0
 10
104.6468424217549
 20
365.3513426820997
 30
0.0
 10
104.6959350324197
 20
365.3513426820997
 30
0.0
 10
104.6959350324197
 20
365.3513426820997
 30
0.0
 10
109.1533718260103
 20
365.3513426820997
 30
0.0
 10
109.1533718260103
 20
365.3513426820997
 30
0.0
 10
109.2022921819008
 20
365.3513426820997
 30
0.0
 10
109.2453558754664
 20
365.3342894594477
 30
0.0
 10
109.2818738876101
 20
365.3008720332408
 30
0.0
 10
109.3187364093022
 20
365.2671100974853
 30
0.0
 10
109.3369954153741
 20
365.2259412064366
 30
0.0
 10
109.3369954153741
 20
365.1770208505461
 30
0.0
 10
109.3369954153741
 20
365.121899322782
 30
0.0
 10
109.3187364093022
 20
365.079180138765
 30
0.0
 10
109.2818738876101
 20
365.0485187889462
 30
0.0
 10
109.2453558754664
 20
365.0178574391275
 30
0.0
 10
109.2022921819008
 20
365.0026990189924
 30
0.0
 10
109.1533718260103
 20
365.0026990189924
 30
0.0
 10
109.1533718260103
 20
365.0026990189924
 30
0.0
 10
104.6959350324197
 20
365.0026990189924
 30
0.0
 10
104.6959350324197
 20
365.0026990189924
 30
0.0
  0
HATCH
  5
B5
330
A5
100
AcDbEntity
  8
0
 62
    18
420
        0
440
 33554687
100
AcDbHatch
 10
0.0
 20
0.0
 30
0.0
210
0.0
220
0.0
230
1.0
  2
SOLID
 70
     1
 71
     1
 91
        2
 92
        1
 93
        1
 72
     4
 94
        3
 73
     0
 74
     0
 95
       26
 96
       22
 40
0.0
 40
0.0
 40
0.0
 40
0.0
 40
1.0
 40
1.0
 40
1.0
 40
2.0
 40
2.0
 40
2.0
 40
3.0
 40
3.0
 40
3.0
 40
4.0
 40
4.0
 40
4.0
 40
5.0
 40
5.0
 40
5.0
 40
6.0
 40
6.0
 40
6.0
 40
7.0
 40
7.0
 40
7.0
 40
7.0
 10
106.9247395566021
 20
358.9307182262396
 10
106.8696180288381
 20
358.9307182262396
 10
106.8251762970784
 20
358.9489772323114
 10
106.7917588708715
 20
358.9856674992293
 10
106.757996935116
 20
359.0223577661472
 10
106.7411159672383
 20
359.0650769501643
 10
106.7411159672383
 20
359.1141695608291
 10
106.7411159672383
 20
359.1141695608291
 10
106.7411159672383
 20
365.1312010805922
 10
106.7411159672383
 20
365.1312010805922
 10
106.7411159672383
 20
365.1312010805922
 10
107.1080186364174
 20
365.1312010805922
 10
107.1080186364174
 20
365.1312010805922
 10
107.1080186364174
 20
365.1312010805922
 10
107.1080186364174
 20
359.1141695608291
 10
107.1080186364174
 20
359.1141695608291
 10
107.1080186364174
 20
359.0650769501643
 10
107.0897596303456
 20
359.0223577661472
 10
107.0528971086534
 20
358.9856674992293
 10
107.0163790965098
 20
358.9489772323114
 10
106.9736599124927
 20
358.9307182262396
 10
106.9247395566021
 20
358.9307182262396
 97
        0
 97
        1
330
B3
 92
        1
 93
        1
 72
     4
 94
        3
 73
     0
 74
     0
 95
       35
 96
       31
 40
0.0
 40
0.0
 40
0.0
 40
0.0
 40
1.0
 40
1.0
 40
1.0
 40
2.0
 40
2.0
 40
2.0
 40
3.0
 40
3.0
 40
3.0
 40
4.0
 40
4.0
 40
4.0
 40
5.0
 40
5.0
 40
5.0
 40
6.0
 40
6.0
 40
6.0
 40
7.0
 40
7.0
 40
7.0
 40
8.0
 40
8.0
 40
8.0
 40
9.0
 40
9.0
 40
9.0
 40
10.0
 40
10.0
 40
10.0
 40
10.0
 10
104.6959350324197
 20
365.0026990189924
 10
104.6468424217549
 20
365.0026990189924
 10
104.6041232377378
 20
365.0195799868701
 10
104.5674329708199
 20
365.0531696678513
 10
104.530742703902
 20
365.0867593488325
 10
104.5124836978302
 20
365.1279282398812
 10
104.5124836978302
 20
365.1770208505461
 10
104.5124836978302
 20
365.2259412064366
 10
104.530742703902
 20
365.2671100974853
 10
104.5674329708199
 20
365.3008720332408
 10
104.6041232377378
 20
365.3342894594477
 10
104.6468424217549
 20
365.3513426820997
 10
104.6959350324197
 20
365.3513426820997
 10
104.6959350324197
 20
365.3513426820997
 10
109.1533718260103
 20
365.3513426820997
 10
109.1533718260103
 20
365.3513426820997
 10
109.2022921819008
 20
365.3513426820997
 10
109.2453558754664
 20
365.3342894594477
 10
109.2818738876101
 20
365.3008720332408
 10
109.3187364093022
 20
365.2671100974853
 10
109.3369954153741
 20
365.2259412064366
 10
109.3369954153741
 20
365.1770208505461
 10
109.3369954153741
 20
365.121899322782
 10
109.3187364093022
 20
365.079180138765
 10
109.2818738876101
 20
365.0485187889462
 10
109.2453558754664
 20
365.0178574391275
 10
109.2022921819008
 20
365.0026990189924
 10
109.1533718260103
 20
365.0026990189924
 10
109.1533718260103
 20
365.0026990189924
 10
104.6959350324197
 20
365.0026990189924
 10
104.6959350324197
 20
365.0026990189924
 97
        0
 97
        1
330
B4
 75
     2
 76
     1
 98
        1
 10
0.0
 20
0.0
450
        0
451
        0
460
0.0
461
0.0
452
        0
462
0.0
453
        0
470

  0
ENDBLK
  5
A8
330
A5
100
AcDbEntity
  8
0
100
AcDbBlockEnd
  0
BLOCK
  5
B8
330
B6
100
AcDbEntity
  8
0
100
AcDbBlockBegin
  2
Block_2
 70
     0
 10
0.0
 20
0.0
 30
0.0
  3
Block_2
  1

  0
INSERT
  5
BB
330
B6
100
AcDbEntity
  8
0
100
AcDbBlockReference
  2
Block_3
 10
0.0
 20
0.0
 30
0.0
  0
ENDBLK
  5
B9
330
B6
100
AcDbEntity
  8
0
100
AcDbBlockEnd
  0
BLOCK
  5
BC
330
BA
100
AcDbEntity
  8
0
100
AcDbBlockBegin
  2
Block_3
 70
     0
 10
0.0
 20
0.0
 30
0.0
  3
Block_3
  1

  0
SPLINE
  5
BE
330
BA
100
AcDbEntity
  8
0
100
AcDbSpline
210
0.0
220
0.0
230
1.0
 70
    11
 71
     3
 72
    77
 73
    73
 74
     0
 42
0.0000000001
 43
0.0000000001
 40
0.0
 40
0.0
 40
0.0
 40
0.0
 40
1.0
 40
1.0
 40
1.0
 40
2.0
 40
2.0
 40
2.0
 40
3.0
 40
3.0
 40
3.0
 40
4.0
 40
4.0
 40
4.0
 40
5.0
 40
5.0
 40
5.0
 40
6.0
 40
6.0
 40
6.0
 40
7.0
 40
7.0
 40
7.0
 40
8.0
 40
8.0
 40
8.0
 40
9.0
 40
9.0
 40
9.0
 40
10.0
 40
10.0
 40
10.0
 40
11.0
 40
11.0
 40
11.0
 40
12.0
 40
12.0
 40
12.0
 40
13.0
 40
13.0
 40
13.0
 40
14.0
 40
14.0
 40
14.0
 40
15.0
 40
15.0
 40
15.0
 40
16.0
 40
16.0
 40
16.0
 40
17.0
 40
17.0
 40
17.0
 40
18.0
 40
18.0
 40
18.0
 40
19.0
 40
19.0
 40
19.0
 40
20.0
 40
20.0
 40
20.0
 40
21.0
 40
21.0
 40
21.0
 40
22.0
 40
22.0
 40
22.0
 40
23.0
 40
23.0
 40
23.0
 40
24.0
 40
24.0
 40
24.0
 40
24.0
 10
-75.52975665429464
 20
-31.69487846429851
 30
0.0
 10
-75.48738197982607
 20
-31.69487846429851
 30
0.0
 10
-75.4532755345221
 20
-31.70900335578803
 30
0.0
 10
-75.42743731838273
 20
-31.73725313876708
 30
0.0
 10
-75.40159910224335
 20
-31.76550292174613
 30
0.0
 10
-75.38867999417367
 20
-31.798231328856
 30
0.0
 10
-75.38867999417367
 20
-31.83612737919375
 30
0.0
 10
-75.38867999417367
 20
-31.83612737919375
 30
0.0
 10
-75.38867999417367
 20
-34.88400335499428
 30
0.0
 10
-75.38867999417367
 20
-34.88400335499428
 30
0.0
 10
-75.38867999417367
 20
-35.21817761706351
 30
0.0
 10
-75.47101777627114
 20
-35.52237954841107
 30
0.0
 10
-75.63552108569182
 20
-35.79764267768253
 30
0.0
 10
-75.80019664988675
 20
-36.072905806954
 30
0.0
 10
-76.01896021320013
 20
-36.29270289891294
 30
0.0
 10
-76.29163952085765
 20
-36.45737846310788
 30
0.0
 10
-76.56449108328944
 20
-36.62205402730283
 30
0.0
 10
-76.86800399553995
 20
-36.70439180940029
 30
0.0
 10
-77.20183374806065
 20
-36.70439180940029
 30
0.0
 10
-77.53600801012989
 20
-36.70439180940029
 30
0.0
 10
-77.84038219625171
 20
-36.62205402730283
 30
0.0
 10
-78.11564532552317
 20
-36.45737846310788
 30
0.0
 10
-78.39073620002037
 20
-36.29270289891294
 30
0.0
 10
-78.61070554675357
 20
-36.072905806954
 30
0.0
 10
-78.77520885617426
 20
-35.79764267768253
 30
0.0
 10
-78.94005667514346
 20
-35.52237954841107
 30
0.0
 10
-79.02222220246667
 20
-35.21817761706351
 30
0.0
 10
-79.02222220246667
 20
-34.88400335499428
 30
0.0
 10
-79.02222220246667
 20
-34.88400335499428
 30
0.0
 10
-79.02222220246667
 20
-31.83612737919375
 30
0.0
 10
-79.02222220246667
 20
-31.83612737919375
 30
0.0
 10
-79.02222220246667
 20
-31.798231328856
 30
0.0
 10
-79.00930309439698
 20
-31.76550292174613
 30
0.0
 10
-78.98346487825761
 20
-31.73725313876708
 30
0.0
 10
-78.95762666211822
 20
-31.70900335578803
 30
0.0
 10
-78.92110864997459
 20
-31.69487846429851
 30
0.0
 10
-78.87408309660092
 20
-31.69487846429851
 30
0.0
 10
-78.83170842213235
 20
-31.69487846429851
 30
0.0
 10
-78.79639619340854
 20
-31.70900335578803
 30
0.0
 10
-78.76814641042949
 20
-31.73725313876708
 30
0.0
 10
-78.74006888222471
 20
-31.76550292174613
 30
0.0
 10
-78.72594399073519
 20
-31.798231328856
 30
0.0
 10
-78.72594399073519
 20
-31.83612737919375
 30
0.0
 10
-78.72594399073519
 20
-31.83612737919375
 30
0.0
 10
-78.72594399073519
 20
-34.88400335499428
 30
0.0
 10
-78.72594399073519
 20
-34.88400335499428
 30
0.0
 10
-78.72594399073519
 20
-35.16615667523624
 30
0.0
 10
-78.65773110012724
 20
-35.42384981753293
 30
0.0
 10
-78.52130531891134
 20
-35.65673827233581
 30
0.0
 10
-78.38487953769545
 20
-35.88928221759018
 30
0.0
 10
-78.20022241968605
 20
-36.07531737379368
 30
0.0
 10
-77.96733396488317
 20
-36.21381021230071
 30
0.0
 10
-77.73461776485454
 20
-36.35264756035628
 30
0.0
 10
-77.4795084441718
 20
-36.42223848915833
 30
0.0
 10
-77.20183374806065
 20
-36.42223848915833
 30
0.0
 10
-76.91968042781869
 20
-36.42223848915833
 30
0.0
 10
-76.66336532371611
 20
-36.35264756035628
 30
0.0
 10
-76.43288843575288
 20
-36.21381021230071
 30
0.0
 10
-76.20241154778968
 20
-36.07531737379368
 30
0.0
 10
-76.01775442978028
 20
-35.88928221759018
 30
0.0
 10
-75.87891708172472
 20
-35.65673827233581
 30
0.0
 10
-75.74025198844342
 20
-35.42384981753293
 30
0.0
 10
-75.67083331441563
 20
-35.16615667523624
 30
0.0
 10
-75.67083331441563
 20
-34.88400335499428
 30
0.0
 10
-75.67083331441563
 20
-34.88400335499428
 30
0.0
 10
-75.67083331441563
 20
-31.83612737919375
 30
0.0
 10
-75.67083331441563
 20
-31.83612737919375
 30
0.0
 10
-75.67083331441563
 20
-31.798231328856
 30
0.0
 10
-75.65791420634593
 20
-31.76550292174613
 30
0.0
 10
-75.63207599020657
 20
-31.73725313876708
 30
0.0
 10
-75.60623777406719
 20
-31.70900335578803
 30
0.0
 10
-75.57213132876322
 20
-31.69487846429851
 30
0.0
 10
-75.52975665429464
 20
-31.69487846429851
 30
0.0
  0
HATCH
  5
BF
330
BA
100
AcDbEntity
  8
0
 62
    18
420
        0
440
 33554687
100
AcDbHatch
 10
0.0
 20
0.0
 30
0.0
210
0.0
220
0.0
230
1.0
  2
SOLID
 70
     1
 71
     1
 91
        1
 92
        1
 93
        1
 72
     4
 94
        3
 73
     0
 74
     0
 95
       77
 96
       73
 40
0.0
 40
0.0
 40
0.0
 40
0.0
 40
1.0
 40
1.0
 40
1.0
 40
2.0
 40
2.0
 40
2.0
 40
3.0
 40
3.0
 40
3.0
 40
4.0
 40
4.0
 40
4.0
 40
5.0
 40
5.0
 40
5.0
 40
6.0
 40
6.0
 40
6.0
 40
7.0
 40
7.0
 40
7.0
 40
8.0
 40
8.0
 40
8.0
 40
9.0
 40
9.0
 40
9.0
 40
10.0
 40
10.0
 40
10.0
 40
11.0
 40
11.0
 40
11.0
 40
12.0
 40
12.0
 40
12.0
 40
13.0
 40
13.0
 40
13.0
 40
14.0
 40
14.0
 40
14.0
 40
15.0
 40
15.0
 40
15.0
 40
16.0
 40
16.0
 40
16.0
 40
17.0
 40
17.0
 40
17.0
 40
18.0
 40
18.0
 40
18.0
 40
19.0
 40
19.0
 40
19.0
 40
20.0
 40
20.0
 40
20.0
 40
21.0
 40
21.0
 40
21.0
 40
22.0
 40
22.0
 40
22.0
 40
23.0
 40
23.0
 40
23.0
 40
24.0
 40
24.0
 40
24.0
 40
24.0
 10
-75.52975665429464
 20
-31.69487846429851
 10
-75.48738197982607
 20
-31.69487846429851
 10
-75.4532755345221
 20
-31.70900335578803
 10
-75.42743731838273
 20
-31.73725313876708
 10
-75.40159910224335
 20
-31.76550292174613
 10
-75.38867999417367
 20
-31.798231328856
 10
-75.38867999417367
 20
-31.83612737919375
 10
-75.38867999417367
 20
-31.83612737919375
 10
-75.38867999417367
 20
-34.88400335499428
 10
-75.38867999417367
 20
-34.88400335499428
 10
-75.38867999417367
 20
-35.21817761706351
 10
-75.47101777627114
 20
-35.52237954841107
 10
-75.63552108569182
 20
-35.79764267768253
 10
-75.80019664988675
 20
-36.072905806954
 10
-76.01896021320013
 20
-36.29270289891294
 10
-76.29163952085765
 20
-36.45737846310788
 10
-76.56449108328944
 20
-36.62205402730283
 10
-76.86800399553995
 20
-36.70439180940029
 10
-77.20183374806065
 20
-36.70439180940029
 10
-77.53600801012989
 20
-36.70439180940029
 10
-77.84038219625171
 20
-36.62205402730283
 10
-78.11564532552317
 20
-36.45737846310788
 10
-78.39073620002037
 20
-36.29270289891294
 10
-78.61070554675357
 20
-36.072905806954
 10
-78.77520885617426
 20
-35.79764267768253
 10
-78.94005667514346
 20
-35.52237954841107
 10
-79.02222220246667
 20
-35.21817761706351
 10
-79.02222220246667
 20
-34.88400335499428
 10
-79.02222220246667
 20
-34.88400335499428
 10
-79.02222220246667
 20
-31.83612737919375
 10
-79.02222220246667
 20
-31.83612737919375
 10
-79.02222220246667
 20
-31.798231328856
 10
-79.00930309439698
 20
-31.76550292174613
 10
-78.98346487825761
 20
-31.73725313876708
 10
-78.95762666211822
 20
-31.70900335578803
 10
-78.92110864997459
 20
-31.69487846429851
 10
-78.87408309660092
 20
-31.69487846429851
 10
-78.83170842213235
 20
-31.69487846429851
 10
-78.79639619340854
 20
-31.70900335578803
 10
-78.76814641042949
 20
-31.73725313876708
 10
-78.74006888222471
 20
-31.76550292174613
 10
-78.72594399073519
 20
-31.798231328856
 10
-78.72594399073519
 20
-31.83612737919375
 10
-78.72594399073519
 20
-31.83612737919375
 10
-78.72594399073519
 20
-34.88400335499428
 10
-78.72594399073519
 20
-34.88400335499428
 10
-78.72594399073519
 20
-35.16615667523624
 10
-78.65773110012724
 20
-35.42384981753293
 10
-78.52130531891134
 20
-35.65673827233581
 10
-78.38487953769545
 20
-35.88928221759018
 10
-78.20022241968605
 20
-36.07531737379368
 10
-77.96733396488317
 20
-36.21381021230071
 10
-77.73461776485454
 20
-36.35264756035628
 10
-77.4795084441718
 20
-36.42223848915833
 10
-77.20183374806065
 20
-36.42223848915833
 10
-76.91968042781869
 20
-36.42223848915833
 10
-76.66336532371611
 20
-36.35264756035628
 10
-76.43288843575288
 20
-36.21381021230071
 10
-76.20241154778968
 20
-36.07531737379368
 10
-76.01775442978028
 20
-35.88928221759018
 10
-75.87891708172472
 20
-35.65673827233581
 10
-75.74025198844342
 20
-35.42384981753293
 10
-75.67083331441563
 20
-35.16615667523624
 10
-75.67083331441563
 20
-34.88400335499428
 10
-75.67083331441563
 20
-34.88400335499428
 10
-75.67083331441563
 20
-31.83612737919375
 10
-75.67083331441563
 20
-31.83612737919375
 10
-75.67083331441563
 20
-31.798231328856
 10
-75.65791420634593
 20
-31.76550292174613
 10
-75.63207599020657
 20
-31.73725313876708
 10
-75.60623777406719
 20
-31.70900335578803
 10
-75.57213132876322
 20
-31.69487846429851
 10
-75.52975665429464
 20
-31.69487846429851
 97
        0
 97
        1
330
BE
 75
     2
 76
     1
 98
        1
 10
0.0
 20
0.0
450
        0
451
        0
460
0.0
461
0.0
452
        0
462
0.0
453
        0
470

  0
SPLINE
  5
C0
330
BA
100
AcDbEntity
  8
0
100
AcDbSpline
210
0.0
220
0.0
230
1.0
 70
     9
 71
     3
 72
    77
 73
    73
 74
     0
 42
0.0000000001
 43
0.0000000001
 40
0.0
 40
0.0
 40
0.0
 40
0.0
 40
1.0
 40
1.0
 40
1.0
 40
2.0
 40
2.0
 40
2.0
 40
3.0
 40
3.0
 40
3.0
 40
4.0
 40
4.0
 40
4.0
 40
5.0
 40
5.0
 40
5.0
 40
6.0
 40
6.0
 40
6.0
 40
7.0
 40
7.0
 40
7.0
 40
8.0
 40
8.0
 40
8.0
 40
9.0
 40
9.0
 40
9.0
 40
10.0
 40
10.0
 40
10.0
 40
11.0
 40
11.0
 40
11.0
 40
12.0
 40
12.0
 40
12.0
 40
13.0
 40
13.0
 40
13.0
 40
14.0
 40
14.0
 40
14.0
 40
15.0
 40
15.0
 40
15.0
 40
16.0
 40
16.0
 40
16.0
 40
17.0
 40
17.0
 40
17.0
 40
18.0
 40
18.0
 40
18.0
 40
19.0
 40
19.0
 40
19.0
 40
20.0
 40
20.0
 40
20.0
 40
21.0
 40
21.0
 40
21.0
 40
22.0
 40
22.0
 40
22.0
 40
23.0
 40
23.0
 40
23.0
 40
24.0
 40
24.0
 40
24.0
 40
24.0
 10
-70.40741643205092
 20
-31.69487846429851
 30
0.0
 10
-70.36504175758235
 20
-31.69487846429851
 30
0.0
 10
-70.33231335047247
 20
-31.70796982714245
 30
0.0
 10
-70.30871444639853
 20
-31.73380804328183
 30
0.0
 10
-70.28511554232456
 20
-31.7596462594212
 30
0.0
 10
-70.27340221767471
 20
-31.7913411378855
 30
0.0
 10
-70.27340221767471
 20
-31.82889267867472
 30
0.0
 10
-70.27340221767471
 20
-31.82889267867472
 30
0.0
 10
-70.27340221767471
 20
-36.4783935455679
 30
0.0
 10
-70.27340221767471
 20
-36.4783935455679
 30
0.0
 10
-70.27340221767471
 20
-36.53041448739518
 30
0.0
 10
-70.28873289258406
 20
-36.56899955682997
 30
0.0
 10
-70.31922198762853
 20
-36.59483777296935
 30
0.0
 10
-70.34988333744725
 20
-36.62102049865725
 30
0.0
 10
-70.38398978275123
 20
-36.63376735195267
 30
0.0
 10
-70.42154132354045
 20
-36.63376735195267
 30
0.0
 10
-70.44048934870932
 20
-36.63376735195267
 30
0.0
 10
-70.46029864774951
 20
-36.62928872782185
 30
0.0
 10
-70.48148598498379
 20
-36.61964246046315
 30
0.0
 10
-70.50267332221809
 20
-36.61034070265297
 30
0.0
 10
-70.52041556396712
 20
-36.59621581116345
 30
0.0
 10
-70.53454045545665
 20
-36.57726778599457
 30
0.0
 10
-70.53454045545665
 20
-36.57726778599457
 30
0.0
 10
-73.80824244031529
 20
-32.10415580794619
 30
0.0
 10
-73.80824244031529
 20
-32.10415580794619
 30
0.0
 10
-73.80824244031529
 20
-32.10415580794619
 30
0.0
 10
-73.7095404546629
 20
-32.05454643295859
 30
0.0
 10
-73.7095404546629
 20
-32.05454643295859
 30
0.0
 10
-73.7095404546629
 20
-32.05454643295859
 30
0.0
 10
-73.7095404546629
 20
-36.51387802906598
 30
0.0
 10
-73.7095404546629
 20
-36.51387802906598
 30
0.0
 10
-73.7095404546629
 20
-36.54695094572438
 30
0.0
 10
-73.72245956273258
 20
-36.5748562191549
 30
0.0
 10
-73.74829777887196
 20
-36.59862737800312
 30
0.0
 10
-73.77413599501133
 20
-36.62205402730283
 30
0.0
 10
-73.8060031282499
 20
-36.63376735195267
 30
0.0
 10
-73.84355466903911
 20
-36.63376735195267
 30
0.0
 10
-73.88592934350768
 20
-36.63376735195267
 30
0.0
 10
-73.91883000539182
 20
-36.62205402730283
 30
0.0
 10
-73.94225665469152
 20
-36.59862737800312
 30
0.0
 10
-73.96585555876548
 20
-36.5748562191549
 30
0.0
 10
-73.97756888341532
 20
-36.54695094572438
 30
0.0
 10
-73.97756888341532
 20
-36.51387802906598
 30
0.0
 10
-73.97756888341532
 20
-36.51387802906598
 30
0.0
 10
-73.97756888341532
 20
-31.83612737919375
 30
0.0
 10
-73.97756888341532
 20
-31.83612737919375
 30
0.0
 10
-73.97756888341532
 20
-31.784450946915
 30
0.0
 10
-73.96344399192582
 20
-31.74793293477135
 30
0.0
 10
-73.93519420894675
 20
-31.7265733427628
 30
0.0
 10
-73.90694442596771
 20
-31.70555826030278
 30
0.0
 10
-73.87886689776292
 20
-31.69487846429851
 30
0.0
 10
-73.85061711478387
 20
-31.69487846429851
 30
0.0
 10
-73.83184134438926
 20
-31.69487846429851
 30
0.0
 10
-73.81289331922039
 20
-31.69832355978376
 30
0.0
 10
-73.79411754882578
 20
-31.70555826030278
 30
0.0
 10
-73.77534177843116
 20
-31.71244845127328
 30
0.0
 10
-73.75880532010197
 20
-31.72553981411723
 30
0.0
 10
-73.74468042861244
 20
-31.74414332973757
 30
0.0
 10
-73.74468042861244
 20
-31.74414332973757
 30
0.0
 10
-70.48510333524331
 20
-36.18935003435544
 30
0.0
 10
-70.48510333524331
 20
-36.18935003435544
 30
0.0
 10
-70.48510333524331
 20
-36.18935003435544
 30
0.0
 10
-70.54143064642715
 20
-36.33025443970216
 30
0.0
 10
-70.54143064642715
 20
-36.33025443970216
 30
0.0
 10
-70.54143064642715
 20
-36.33025443970216
 30
0.0
 10
-70.54143064642715
 20
-31.82889267867472
 30
0.0
 10
-70.54143064642715
 20
-31.82889267867472
 30
0.0
 10
-70.54143064642715
 20
-31.7913411378855
 30
0.0
 10
-70.52747800971189
 20
-31.7596462594212
 30
0.0
 10
-70.49922822673284
 20
-31.73380804328183
 30
0.0
 10
-70.47097844375379
 20
-31.70796982714245
 30
0.0
 10
-70.44048934870932
 20
-31.69487846429851
 30
0.0
 10
-70.40741643205092
 20
-31.69487846429851
 30
0.0
  0
HATCH
  5
C1
330
BA
100
AcDbEntity
  8
0
 62
    18
420
        0
440
 33554687
100
AcDbHatch
 10
0.0
 20
0.0
 30
0.0
210
0.0
220
0.0
230
1.0
  2
SOLID
 70
     1
 71
     1
 91
        1
 92
        1
 93
        1
 72
     4
 94
        3
 73
     0
 74
     0
 95
       77
 96
       73
 40
0.0
 40
0.0
 40
0.0
 40
0.0
 40
1.0
 40
1.0
 40
1.0
 40
2.0
 40
2.0
 40
2.0
 40
3.0
 40
3.0
 40
3.0
 40
4.0
 40
4.0
 40
4.0
 40
5.0
 40
5.0
 40
5.0
 40
6.0
 40
6.0
 40
6.0
 40
7.0
 40
7.0
 40
7.0
 40
8.0
 40
8.0
 40
8.0
 40
9.0
 40
9.0
 40
9.0
 40
10.0
 40
10.0
 40
10.0
 40
11.0
 40
11.0
 40
11.0
 40
12.0
 40
12.0
 40
12.0
 40
13.0
 40
13.0
 40
13.0
 40
14.0
 40
14.0
 40
14.0
 40
15.0
 40
15.0
 40
15.0
 40
16.0
 40
16.0
 40
16.0
 40
17.0
 40
17.0
 40
17.0
 40
18.0
 40
18.0
 40
18.0
 40
19.0
 40
19.0
 40
19.0
 40
20.0
 40
20.0
 40
20.0
 40
21.0
 40
21.0
 40
21.0
 40
22.0
 40
22.0
 40
22.0
 40
23.0
 40
23.0
 40
23.0
 40
24.0
 40
24.0
 40
24.0
 40
24.0
 10
-70.40741643205092
 20
-31.69487846429851
 10
-70.36504175758235
 20
-31.69487846429851
 10
-70.33231335047247
 20
-31.70796982714245
 10
-70.30871444639853
 20
-31.73380804328183
 10
-70.28511554232456
 20
-31.7596462594212
 10
-70.27340221767471
 20
-31.7913411378855
 10
-70.27340221767471
 20
-31.82889267867472
 10
-70.27340221767471
 20
-31.82889267867472
 10
-70.27340221767471
 20
-36.4783935455679
 10
-70.27340221767471
 20
-36.4783935455679
 10
-70.27340221767471
 20
-36.53041448739518
 10
-70.28873289258406
 20
-36.56899955682997
 10
-70.31922198762853
 20
-36.59483777296935
 10
-70.34988333744725
 20
-36.62102049865725
 10
-70.38398978275123
 20
-36.63376735195267
 10
-70.42154132354045
 20
-36.63376735195267
 10
-70.44048934870932
 20
-36.63376735195267
 10
-70.46029864774951
 20
-36.62928872782185
 10
-70.48148598498379
 20
-36.61964246046315
 10
-70.50267332221809
 20
-36.61034070265297
 10
-70.52041556396712
 20
-36.59621581116345
 10
-70.53454045545665
 20
-36.57726778599457
 10
-70.53454045545665
 20
-36.57726778599457
 10
-73.80824244031529
 20
-32.10415580794619
 10
-73.80824244031529
 20
-32.10415580794619
 10
-73.80824244031529
 20
-32.10415580794619
 10
-73.7095404546629
 20
-32.05454643295859
 10
-73.7095404546629
 20
-32.05454643295859
 10
-73.7095404546629
 20
-32.05454643295859
 10
-73.7095404546629
 20
-36.51387802906598
 10
-73.7095404546629
 20
-36.51387802906598
 10
-73.7095404546629
 20
-36.54695094572438
 10
-73.72245956273258
 20
-36.5748562191549
 10
-73.74829777887196
 20
-36.59862737800312
 10
-73.77413599501133
 20
-36.62205402730283
 10
-73.8060031282499
 20
-36.63376735195267
 10
-73.84355466903911
 20
-36.63376735195267
 10
-73.88592934350768
 20
-36.63376735195267
 10
-73.91883000539182
 20
-36.62205402730283
 10
-73.94225665469152
 20
-36.59862737800312
 10
-73.96585555876548
 20
-36.5748562191549
 10
-73.97756888341532
 20
-36.54695094572438
 10
-73.97756888341532
 20
-36.51387802906598
 10
-73.97756888341532
 20
-36.51387802906598
 10
-73.97756888341532
 20
-31.83612737919375
 10
-73.97756888341532
 20
-31.83612737919375
 10
-73.97756888341532
 20
-31.784450946915
 10
-73.96344399192582
 20
-31.74793293477135
 10
-73.93519420894675
 20
-31.7265733427628
 10
-73.90694442596771
 20
-31.70555826030278
 10
-73.87886689776292
 20
-31.69487846429851
 10
-73.85061711478387
 20
-31.69487846429851
 10
-73.83184134438926
 20
-31.69487846429851
 10
-73.81289331922039
 20
-31.69832355978376
 10
-73.79411754882578
 20
-31.70555826030278
 10
-73.77534177843116
 20
-31.71244845127328
 10
-73.75880532010197
 20
-31.72553981411723
 10
-73.74468042861244
 20
-31.74414332973757
 10
-73.74468042861244
 20
-31.74414332973757
 10
-70.48510333524331
 20
-36.18935003435544
 10
-70.48510333524331
 20
-36.18935003435544
 10
-70.48510333524331
 20
-36.18935003435544
 10
-70.54143064642715
 20
-36.33025443970216
 10
-70.54143064642715
 20
-36.33025443970216
 10
-70.54143064642715
 20
-36.33025443970216
 10
-70.54143064642715
 20
-31.82889267867472
 10
-70.54143064642715
 20
-31.82889267867472
 10
-70.54143064642715
 20
-31.7913411378855
 10
-70.52747800971189
 20
-31.7596462594212
 10
-70.49922822673284
 20
-31.73380804328183
 10
-70.47097844375379
 20
-31.70796982714245
 10
-70.44048934870932
 20
-31.69487846429851
 10
-70.40741643205092
 20
-31.69487846429851
 97
        0
 97
        1
330
C0
 75
     2
 76
     1
 98
        1
 10
0.0
 20
0.0
450
        0
451
        0
460
0.0
461
0.0
452
        0
462
0.0
453
        0
470

  0
SPLINE
  5
C2
330
BA
100
AcDbEntity
  8
0
100
AcDbSpline
210
0.0
220
0.0
230
1.0
 70
     9
 71
     3
 72
    41
 73
    37
 74
     0
 42
0.0000000001
 43
0.0000000001
 40
0.0
 40
0.0
 40
0.0
 40
0.0
 40
1.0
 40
1.0
 40
1.0
 40
2.0
 40
2.0
 40
2.0
 40
3.0
 40
3.0
 40
3.0
 40
4.0
 40
4.0
 40
4.0
 40
5.0
 40
5.0
 40
5.0
 40
6.0
 40
6.0
 40
6.0
 40
7.0
 40
7.0
 40
7.0
 40
8.0
 40
8.0
 40
8.0
 40
9.0
 40
9.0
 40
9.0
 40
10.0
 40
10.0
 40
10.0
 40
11.0
 40
11.0
 40
11.0
 40
12.0
 40
12.0
 40
12.0
 40
12.0
 10
-66.95732555834748
 20
-36.35161403171071
 30
0.0
 10
-66.5246215654001
 20
-36.35161403171071
 30
0.0
 10
-66.17528888319576
 20
-36.25411782947814
 30
0.0
 10
-65.90949976650875
 20
-36.05878091546447
 30
0.0
 10
-65.64388290459598
 20
-35.86344400145081
 30
0.0
 10
-65.44854599058232
 20
-35.60023870637772
 30
0.0
 10
-65.32400578879053
 20
-35.26847601114816
 30
0.0
 10
-65.19929333222449
 20
-34.93705782546713
 30
0.0
 10
-65.13693710394147
 20
-34.56877711809392
 30
0.0
 10
-65.13693710394147
 20
-34.16432290812559
 30
0.0
 10
-65.13693710394147
 20
-33.87734645420428
 30
0.0
 10
-65.17121580401969
 20
-33.60242783448134
 30
0.0
 10
-65.23925643985338
 20
-33.33887802985973
 30
0.0
 10
-65.30746933046133
 20
-33.07532822523812
 30
0.0
 10
-65.4146118000526
 20
-32.84140624178965
 30
0.0
 10
-65.56033933907866
 20
-32.63676756996581
 30
0.0
 10
-65.70606687810474
 20
-32.43212889814197
 30
0.0
 10
-65.89434134637364
 20
-32.27124293898081
 30
0.0
 10
-66.12481823433686
 20
-32.15342067338526
 30
0.0
 10
-66.35529512230006
 20
-32.03594291733824
 30
0.0
 10
-66.63279756363694
 20
-31.97703178454047
 30
0.0
 10
-66.95732555834748
 20
-31.97703178454047
 30
0.0
 10
-66.95732555834748
 20
-31.97703178454047
 30
0.0
 10
-68.6082153148792
 20
-31.97703178454047
 30
0.0
 10
-68.6082153148792
 20
-31.97703178454047
 30
0.0
 10
-68.6082153148792
 20
-31.97703178454047
 30
0.0
 10
-68.56601289518488
 20
-31.92053221858237
 30
0.0
 10
-68.56601289518488
 20
-31.92053221858237
 30
0.0
 10
-68.56601289518488
 20
-31.92053221858237
 30
0.0
 10
-68.56601289518488
 20
-36.41500378863931
 30
0.0
 10
-68.56601289518488
 20
-36.41500378863931
 30
0.0
 10
-68.56601289518488
 20
-36.41500378863931
 30
0.0
 10
-68.6082153148792
 20
-36.35161403171071
 30
0.0
 10
-68.6082153148792
 20
-36.35161403171071
 30
0.0
 10
-68.6082153148792
 20
-36.35161403171071
 30
0.0
 10
-66.95732555834748
 20
-36.35161403171071
 30
0.0
 10
-66.95732555834748
 20
-36.35161403171071
 30
0.0
  0
SPLINE
  5
C3
330
BA
100
AcDbEntity
  8
0
100
AcDbSpline
210
0.0
220
0.0
230
1.0
 70
     9
 71
     3
 72
    47
 73
    43
 74
     0
 42
0.0000000001
 43
0.0000000001
 40
0.0
 40
0.0
 40
0.0
 40
0.0
 40
1.0
 40
1.0
 40
1.0
 40
2.0
 40
2.0
 40
2.0
 40
3.0
 40
3.0
 40
3.0
 40
4.0
 40
4.0
 40
4.0
 40
5.0
 40
5.0
 40
5.0
 40
6.0
 40
6.0
 40
6.0
 40
7.0
 40
7.0
 40
7.0
 40
8.0
 40
8.0
 40
8.0
 40
9.0
 40
9.0
 40
9.0
 40
10.0
 40
10.0
 40
10.0
 40
11.0
 40
11.0
 40
11.0
 40
12.0
 40
12.0
 40
12.0
 40
13.0
 40
13.0
 40
13.0
 40
14.0
 40
14.0
 40
14.0
 40
14.0
 10
-66.88670110089986
 20
-31.69487846429851
 30
0.0
 10
-66.53392332321027
 20
-31.69487846429851
 30
0.0
 10
-66.22817109889435
 20
-31.76205782626088
 30
0.0
 10
-65.96944442795209
 20
-31.8960720406371
 30
0.0
 10
-65.71089001178409
 20
-32.03008625501332
 30
0.0
 10
-65.49798311079564
 20
-32.2133653348286
 30
0.0
 10
-65.33106823453529
 20
-32.44625378963149
 30
0.0
 10
-65.16415335827493
 20
-32.67914224443438
 30
0.0
 10
-65.04064668512874
 20
-32.94372557770157
 30
0.0
 10
-64.96054821509666
 20
-33.24000378943305
 30
0.0
 10
-64.88062199983888
 20
-33.53628200116455
 30
0.0
 10
-64.84065889220997
 20
-33.8446180470944
 30
0.0
 10
-64.84065889220997
 20
-34.16432290812559
 30
0.0
 10
-64.84065889220997
 20
-34.61597492624184
 30
0.0
 10
-64.91231687830318
 20
-35.02869736537478
 30
0.0
 10
-65.05580510526383
 20
-35.40249022552438
 30
0.0
 10
-65.19929333222449
 20
-35.77662759522251
 30
0.0
 10
-65.42167424579736
 20
-36.07531737379368
 30
0.0
 10
-65.72260333643393
 20
-36.29855956123786
 30
0.0
 10
-66.02370468184478
 20
-36.52214625823058
 30
0.0
 10
-66.41162243348389
 20
-36.63376735195267
 30
0.0
 10
-66.88670110089986
 20
-36.63376735195267
 30
0.0
 10
-66.88670110089986
 20
-36.63376735195267
 30
0.0
 10
-68.7212144467954
 20
-36.63376735195267
 30
0.0
 10
-68.7212144467954
 20
-36.63376735195267
 30
0.0
 10
-68.75893824235888
 20
-36.63376735195267
 30
0.0
 10
-68.79166664946875
 20
-36.61964246046315
 30
0.0
 10
-68.8199164324478
 20
-36.5913926774841
 30
0.0
 10
-68.84816621542684
 20
-36.56314289450505
 30
0.0
 10
-68.86229110691637
 20
-36.53041448739518
 30
0.0
 10
-68.86229110691637
 20
-36.49251843705743
 30
0.0
 10
-68.86229110691637
 20
-36.49251843705743
 30
0.0
 10
-68.86229110691637
 20
-31.83612737919375
 30
0.0
 10
-68.86229110691637
 20
-31.83612737919375
 30
0.0
 10
-68.86229110691637
 20
-31.798231328856
 30
0.0
 10
-68.84816621542684
 20
-31.76550292174613
 30
0.0
 10
-68.8199164324478
 20
-31.73725313876708
 30
0.0
 10
-68.79166664946875
 20
-31.70900335578803
 30
0.0
 10
-68.75893824235888
 20
-31.69487846429851
 30
0.0
 10
-68.7212144467954
 20
-31.69487846429851
 30
0.0
 10
-68.7212144467954
 20
-31.69487846429851
 30
0.0
 10
-66.88670110089986
 20
-31.69487846429851
 30
0.0
 10
-66.88670110089986
 20
-31.69487846429851
 30
0.0
  0
HATCH
  5
C4
330
BA
100
AcDbEntity
  8
0
 62
    18
420
        0
440
 33554687
100
AcDbHatch
 10
0.0
 20
0.0
 30
0.0
210
0.0
220
0.0
230
1.0
  2
SOLID
 70
     1
 71
     1
 91
        2
 92
        1
 93
        1
 72
     4
 94
        3
 73
     0
 74
     0
 95
       41
 96
       37
 40
0.0
 40
0.0
 40
0.0
 40
0.0
 40
1.0
 40
1.0
 40
1.0
 40
2.0
 40
2.0
 40
2.0
 40
3.0
 40
3.0
 40
3.0
 40
4.0
 40
4.0
 40
4.0
 40
5.0
 40
5.0
 40
5.0
 40
6.0
 40
6.0
 40
6.0
 40
7.0
 40
7.0
 40
7.0
 40
8.0
 40
8.0
 40
8.0
 40
9.0
 40
9.0
 40
9.0
 40
10.0
 40
10.0
 40
10.0
 40
11.0
 40
11.0
 40
11.0
 40
12.0
 40
12.0
 40
12.0
 40
12.0
 10
-66.95732555834748
 20
-36.35161403171071
 10
-66.5246215654001
 20
-36.35161403171071
 10
-66.17528888319576
 20
-36.25411782947814
 10
-65.90949976650875
 20
-36.05878091546447
 10
-65.64388290459598
 20
-35.86344400145081
 10
-65.44854599058232
 20
-35.60023870637772
 10
-65.32400578879053
 20
-35.26847601114816
 10
-65.19929333222449
 20
-34.93705782546713
 10
-65.13693710394147
 20
-34.56877711809392
 10
-65.13693710394147
 20
-34.16432290812559
 10
-65.13693710394147
 20
-33.87734645420428
 10
-65.17121580401969
 20
-33.60242783448134
 10
-65.23925643985338
 20
-33.33887802985973
 10
-65.30746933046133
 20
-33.07532822523812
 10
-65.4146118000526
 20
-32.84140624178965
 10
-65.56033933907866
 20
-32.63676756996581
 10
-65.70606687810474
 20
-32.43212889814197
 10
-65.89434134637364
 20
-32.27124293898081
 10
-66.12481823433686
 20
-32.15342067338526
 10
-66.35529512230006
 20
-32.03594291733824
 10
-66.63279756363694
 20
-31.97703178454047
 10
-66.95732555834748
 20
-31.97703178454047
 10
-66.95732555834748
 20
-31.97703178454047
 10
-68.6082153148792
 20
-31.97703178454047
 10
-68.6082153148792
 20
-31.97703178454047
 10
-68.6082153148792
 20
-31.97703178454047
 10
-68.56601289518488
 20
-31.92053221858237
 10
-68.56601289518488
 20
-31.92053221858237
 10
-68.56601289518488
 20
-31.92053221858237
 10
-68.56601289518488
 20
-36.41500378863931
 10
-68.56601289518488
 20
-36.41500378863931
 10
-68.56601289518488
 20
-36.41500378863931
 10
-68.6082153148792
 20
-36.35161403171071
 10
-68.6082153148792
 20
-36.35161403171071
 10
-68.6082153148792
 20
-36.35161403171071
 10
-66.95732555834748
 20
-36.35161403171071
 10
-66.95732555834748
 20
-36.35161403171071
 97
        0
 97
        1
330
C2
 92
        1
 93
        1
 72
     4
 94
        3
 73
     0
 74
     0
 95
       47
 96
       43
 40
0.0
 40
0.0
 40
0.0
 40
0.0
 40
1.0
 40
1.0
 40
1.0
 40
2.0
 40
2.0
 40
2.0
 40
3.0
 40
3.0
 40
3.0
 40
4.0
 40
4.0
 40
4.0
 40
5.0
 40
5.0
 40
5.0
 40
6.0
 40
6.0
 40
6.0
 40
7.0
 40
7.0
 40
7.0
 40
8.0
 40
8.0
 40
8.0
 40
9.0
 40
9.0
 40
9.0
 40
10.0
 40
10.0
 40
10.0
 40
11.0
 40
11.0
 40
11.0
 40
12.0
 40
12.0
 40
12.0
 40
13.0
 40
13.0
 40
13.0
 40
14.0
 40
14.0
 40
14.0
 40
14.0
 10
-66.88670110089986
 20
-31.69487846429851
 10
-66.53392332321027
 20
-31.69487846429851
 10
-66.22817109889435
 20
-31.76205782626088
 10
-65.96944442795209
 20
-31.8960720406371
 10
-65.71089001178409
 20
-32.03008625501332
 10
-65.49798311079564
 20
-32.2133653348286
 10
-65.33106823453529
 20
-32.44625378963149
 10
-65.16415335827493
 20
-32.67914224443438
 10
-65.04064668512874
 20
-32.94372557770157
 10
-64.96054821509666
 20
-33.24000378943305
 10
-64.88062199983888
 20
-33.53628200116455
 10
-64.84065889220997
 20
-33.8446180470944
 10
-64.84065889220997
 20
-34.16432290812559
 10
-64.84065889220997
 20
-34.61597492624184
 10
-64.91231687830318
 20
-35.02869736537478
 10
-65.05580510526383
 20
-35.40249022552438
 10
-65.19929333222449
 20
-35.77662759522251
 10
-65.42167424579736
 20
-36.07531737379368
 10
-65.72260333643393
 20
-36.29855956123786
 10
-66.02370468184478
 20
-36.52214625823058
 10
-66.41162243348389
 20
-36.63376735195267
 10
-66.88670110089986
 20
-36.63376735195267
 10
-66.88670110089986
 20
-36.63376735195267
 10
-68.7212144467954
 20
-36.63376735195267
 10
-68.7212144467954
 20
-36.63376735195267
 10
-68.75893824235888
 20
-36.63376735195267
 10
-68.79166664946875
 20
-36.61964246046315
 10
-68.8199164324478
 20
-36.5913926774841
 10
-68.84816621542684
 20
-36.56314289450505
 10
-68.86229110691637
 20
-36.53041448739518
 10
-68.86229110691637
 20
-36.49251843705743
 10
-68.86229110691637
 20
-36.49251843705743
 10
-68.86229110691637
 20
-31.83612737919375
 10
-68.86229110691637
 20
-31.83612737919375
 10
-68.86229110691637
 20
-31.798231328856
 10
-68.84816621542684
 20
-31.76550292174613
 10
-68.8199164324478
 20
-31.73725313876708
 10
-68.79166664946875
 20
-31.70900335578803
 10
-68.75893824235888
 20
-31.69487846429851
 10
-68.7212144467954
 20
-31.69487846429851
 10
-68.7212144467954
 20
-31.69487846429851
 10
-66.88670110089986
 20
-31.69487846429851
 10
-66.88670110089986
 20
-31.69487846429851
 97
        0
 97
        1
330
C3
 75
     2
 76
     1
 98
        1
 10
0.0
 20
0.0
450
        0
451
        0
460
0.0
461
0.0
452
        0
462
0.0
453
        0
470

  0
SPLINE
  5
C5
330
BA
100
AcDbEntity
  8
0
100
AcDbSpline
210
0.0
220
0.0
230
1.0
 70
     9
 71
     3
 72
    92
 73
    88
 74
     0
 42
0.0000000001
 43
0.0000000001
 40
0.0
 40
0.0
 40
0.0
 40
0.0
 40
1.0
 40
1.0
 40
1.0
 40
2.0
 40
2.0
 40
2.0
 40
3.0
 40
3.0
 40
3.0
 40
4.0
 40
4.0
 40
4.0
 40
5.0
 40
5.0
 40
5.0
 40
6.0
 40
6.0
 40
6.0
 40
7.0
 40
7.0
 40
7.0
 40
8.0
 40
8.0
 40
8.0
 40
9.0
 40
9.0
 40
9.0
 40
10.0
 40
10.0
 40
10.0
 40
11.0
 40
11.0
 40
11.0
 40
12.0
 40
12.0
 40
12.0
 40
13.0
 40
13.0
 40
13.0
 40
14.0
 40
14.0
 40
14.0
 40
15.0
 40
15.0
 40
15.0
 40
16.0
 40
16.0
 40
16.0
 40
17.0
 40
17.0
 40
17.0
 40
18.0
 40
18.0
 40
18.0
 40
19.0
 40
19.0
 40
19.0
 40
20.0
 40
20.0
 40
20.0
 40
21.0
 40
21.0
 40
21.0
 40
22.0
 40
22.0
 40
22.0
 40
23.0
 40
23.0
 40
23.0
 40
24.0
 40
24.0
 40
24.0
 40
25.0
 40
25.0
 40
25.0
 40
26.0
 40
26.0
 40
26.0
 40
27.0
 40
27.0
 40
27.0
 40
28.0
 40
28.0
 40
28.0
 40
29.0
 40
29.0
 40
29.0
 40
29.0
 10
-63.64124889902025
 20
-31.69487846429851
 30
0.0
 10
-63.64124889902025
 20
-31.69487846429851
 30
0.0
 10
-60.98129067485885
 20
-31.69487846429851
 30
0.0
 10
-60.98129067485885
 20
-31.69487846429851
 30
0.0
 10
-60.94373913406962
 20
-31.69487846429851
 30
0.0
 10
-60.91066621741123
 20
-31.70900335578803
 30
0.0
 10
-60.88241643443217
 20
-31.73725313876708
 30
0.0
 10
-60.85433890622739
 20
-31.76550292174613
 30
0.0
 10
-60.84021401473787
 20
-31.798231328856
 30
0.0
 10
-60.84021401473787
 20
-31.83612737919375
 30
0.0
 10
-60.84021401473787
 20
-31.8781575441138
 30
0.0
 10
-60.85433890622739
 20
-31.91260849896629
 30
0.0
 10
-60.88241643443217
 20
-31.93844671510567
 30
0.0
 10
-60.91066621741123
 20
-31.96428493124504
 30
0.0
 10
-60.94373913406962
 20
-31.97703178454047
 30
0.0
 10
-60.98129067485885
 20
-31.97703178454047
 30
0.0
 10
-60.98129067485885
 20
-31.97703178454047
 30
0.0
 10
-63.5564995500831
 20
-31.97703178454047
 30
0.0
 10
-63.5564995500831
 20
-31.97703178454047
 30
0.0
 10
-63.5564995500831
 20
-31.97703178454047
 30
0.0
 10
-63.48604734740973
 20
-31.85714246165377
 30
0.0
 10
-63.48604734740973
 20
-31.85714246165377
 30
0.0
 10
-63.48604734740973
 20
-31.85714246165377
 30
0.0
 10
-63.48604734740973
 20
-34.04443358523889
 30
0.0
 10
-63.48604734740973
 20
-34.04443358523889
 30
0.0
 10
-63.48604734740973
 20
-34.04443358523889
 30
0.0
 10
-63.57062444157262
 20
-33.94555934481223
 30
0.0
 10
-63.57062444157262
 20
-33.94555934481223
 30
0.0
 10
-63.57062444157262
 20
-33.94555934481223
 30
0.0
 10
-61.29875622382462
 20
-33.94555934481223
 30
0.0
 10
-61.29875622382462
 20
-33.94555934481223
 30
0.0
 10
-61.2612046830354
 20
-33.94555934481223
 30
0.0
 10
-61.22813176637699
 20
-33.95968423630175
 30
0.0
 10
-61.20005423817222
 20
-33.9879340192808
 30
0.0
 10
-61.17180445519316
 20
-34.01618380225985
 30
0.0
 10
-61.15767956370364
 20
-34.04925671891824
 30
0.0
 10
-61.15767956370364
 20
-34.08680825970747
 30
0.0
 10
-61.15767956370364
 20
-34.12918293417604
 30
0.0
 10
-61.17180445519316
 20
-34.16328937948001
 30
0.0
 10
-61.20005423817222
 20
-34.18912759561939
 30
0.0
 10
-61.22813176637699
 20
-34.21496581175876
 30
0.0
 10
-61.2612046830354
 20
-34.22771266505419
 30
0.0
 10
-61.29875622382462
 20
-34.22771266505419
 30
0.0
 10
-61.29875622382462
 20
-34.22771266505419
 30
0.0
 10
-63.5564995500831
 20
-34.22771266505419
 30
0.0
 10
-63.5564995500831
 20
-34.22771266505419
 30
0.0
 10
-63.5564995500831
 20
-34.22771266505419
 30
0.0
 10
-63.48604734740973
 20
-34.15019801663606
 30
0.0
 10
-63.48604734740973
 20
-34.15019801663606
 30
0.0
 10
-63.48604734740973
 20
-34.15019801663606
 30
0.0
 10
-63.48604734740973
 20
-36.38675400566026
 30
0.0
 10
-63.48604734740973
 20
-36.38675400566026
 30
0.0
 10
-63.48604734740973
 20
-36.38675400566026
 30
0.0
 10
-63.51429713038879
 20
-36.35161403171071
 30
0.0
 10
-63.51429713038879
 20
-36.35161403171071
 30
0.0
 10
-63.51429713038879
 20
-36.35161403171071
 30
0.0
 10
-60.98129067485885
 20
-36.35161403171071
 30
0.0
 10
-60.98129067485885
 20
-36.35161403171071
 30
0.0
 10
-60.94373913406962
 20
-36.35161403171071
 30
0.0
 10
-60.91066621741123
 20
-36.36573892320023
 30
0.0
 10
-60.88241643443217
 20
-36.39398870617928
 30
0.0
 10
-60.85433890622739
 20
-36.42223848915833
 30
0.0
 10
-60.84021401473787
 20
-36.45496689626821
 30
0.0
 10
-60.84021401473787
 20
-36.49251843705743
 30
0.0
 10
-60.84021401473787
 20
-36.53489311152601
 30
0.0
 10
-60.85433890622739
 20
-36.56899955682997
 30
0.0
 10
-60.88241643443217
 20
-36.59483777296935
 30
0.0
 10
-60.91066621741123
 20
-36.62102049865725
 30
0.0
 10
-60.94373913406962
 20
-36.63376735195267
 30
0.0
 10
-60.98129067485885
 20
-36.63376735195267
 30
0.0
 10
-60.98129067485885
 20
-36.63376735195267
 30
0.0
 10
-63.64124889902025
 20
-36.63376735195267
 30
0.0
 10
-63.64124889902025
 20
-36.63376735195267
 30
0.0
 10
-63.67897269458373
 20
-36.63376735195267
 30
0.0
 10
-63.7117011016936
 20
-36.61964246046315
 30
0.0
 10
-63.73995088467265
 20
-36.5913926774841
 30
0.0
 10
-63.7682006676517
 20
-36.56314289450505
 30
0.0
 10
-63.78232555914123
 20
-36.53041448739518
 30
0.0
 10
-63.78232555914123
 20
-36.49251843705743
 30
0.0
 10
-63.78232555914123
 20
-36.49251843705743
 30
0.0
 10
-63.78232555914123
 20
-31.83612737919375
 30
0.0
 10
-63.78232555914123
 20
-31.83612737919375
 30
0.0
 10
-63.78232555914123
 20
-31.798231328856
 30
0.0
 10
-63.7682006676517
 20
-31.76550292174613
 30
0.0
 10
-63.73995088467265
 20
-31.73725313876708
 30
0.0
 10
-63.7117011016936
 20
-31.70900335578803
 30
0.0
 10
-63.67897269458373
 20
-31.69487846429851
 30
0.0
 10
-63.64124889902025
 20
-31.69487846429851
 30
0.0
  0
HATCH
  5
C6
330
BA
100
AcDbEntity
  8
0
 62
    18
420
        0
440
 33554687
100
AcDbHatch
 10
0.0
 20
0.0
 30
0.0
210
0.0
220
0.0
230
1.0
  2
SOLID
 70
     1
 71
     1
 91
        1
 92
        1
 93
        1
 72
     4
 94
        3
 73
     0
 74
     0
 95
       92
 96
       88
 40
0.0
 40
0.0
 40
0.0
 40
0.0
 40
1.0
 40
1.0
 40
1.0
 40
2.0
 40
2.0
 40
2.0
 40
3.0
 40
3.0
 40
3.0
 40
4.0
 40
4.0
 40
4.0
 40
5.0
 40
5.0
 40
5.0
 40
6.0
 40
6.0
 40
6.0
 40
7.0
 40
7.0
 40
7.0
 40
8.0
 40
8.0
 40
8.0
 40
9.0
 40
9.0
 40
9.0
 40
10.0
 40
10.0
 40
10.0
 40
11.0
 40
11.0
 40
11.0
 40
12.0
 40
12.0
 40
12.0
 40
13.0
 40
13.0
 40
13.0
 40
14.0
 40
14.0
 40
14.0
 40
15.0
 40
15.0
 40
15.0
 40
16.0
 40
16.0
 40
16.0
 40
17.0
 40
17.0
 40
17.0
 40
18.0
 40
18.0
 40
18.0
 40
19.0
 40
19.0
 40
19.0
 40
20.0
 40
20.0
 40
20.0
 40
21.0
 40
21.0
 40
21.0
 40
22.0
 40
22.0
 40
22.0
 40
23.0
 40
23.0
 40
23.0
 40
24.0
 40
24.0
 40
24.0
 40
25.0
 40
25.0
 40
25.0
 40
26.0
 40
26.0
 40
26.0
 40
27.0
 40
27.0
 40
27.0
 40
28.0
 40
28.0
 40
28.0
 40
29.0
 40
29.0
 40
29.0
 40
29.0
 10
-63.64124889902025
 20
-31.69487846429851
 10
-63.64124889902025
 20
-31.69487846429851
 10
-60.98129067485885
 20
-31.69487846429851
 10
-60.98129067485885
 20
-31.69487846429851
 10
-60.94373913406962
 20
-31.69487846429851
 10
-60.91066621741123
 20
-31.70900335578803
 10
-60.88241643443217
 20
-31.73725313876708
 10
-60.85433890622739
 20
-31.76550292174613
 10
-60.84021401473787
 20
-31.798231328856
 10
-60.84021401473787
 20
-31.83612737919375
 10
-60.84021401473787
 20
-31.8781575441138
 10
-60.85433890622739
 20
-31.91260849896629
 10
-60.88241643443217
 20
-31.93844671510567
 10
-60.91066621741123
 20
-31.96428493124504
 10
-60.94373913406962
 20
-31.97703178454047
 10
-60.98129067485885
 20
-31.97703178454047
 10
-60.98129067485885
 20
-31.97703178454047
 10
-63.5564995500831
 20
-31.97703178454047
 10
-63.5564995500831
 20
-31.97703178454047
 10
-63.5564995500831
 20
-31.97703178454047
 10
-63.48604734740973
 20
-31.85714246165377
 10
-63.48604734740973
 20
-31.85714246165377
 10
-63.48604734740973
 20
-31.85714246165377
 10
-63.48604734740973
 20
-34.04443358523889
 10
-63.48604734740973
 20
-34.04443358523889
 10
-63.48604734740973
 20
-34.04443358523889
 10
-63.57062444157262
 20
-33.94555934481223
 10
-63.57062444157262
 20
-33.94555934481223
 10
-63.57062444157262
 20
-33.94555934481223
 10
-61.29875622382462
 20
-33.94555934481223
 10
-61.29875622382462
 20
-33.94555934481223
 10
-61.2612046830354
 20
-33.94555934481223
 10
-61.22813176637699
 20
-33.95968423630175
 10
-61.20005423817222
 20
-33.9879340192808
 10
-61.17180445519316
 20
-34.01618380225985
 10
-61.15767956370364
 20
-34.04925671891824
 10
-61.15767956370364
 20
-34.08680825970747
 10
-61.15767956370364
 20
-34.12918293417604
 10
-61.17180445519316
 20
-34.16328937948001
 10
-61.20005423817222
 20
-34.18912759561939
 10
-61.22813176637699
 20
-34.21496581175876
 10
-61.2612046830354
 20
-34.22771266505419
 10
-61.29875622382462
 20
-34.22771266505419
 10
-61.29875622382462
 20
-34.22771266505419
 10
-63.5564995500831
 20
-34.22771266505419
 10
-63.5564995500831
 20
-34.22771266505419
 10
-63.5564995500831
 20
-34.22771266505419
 10
-63.48604734740973
 20
-34.15019801663606
 10
-63.48604734740973
 20
-34.15019801663606
 10
-63.48604734740973
 20
-34.15019801663606
 10
-63.48604734740973
 20
-36.38675400566026
 10
-63.48604734740973
 20
-36.38675400566026
 10
-63.48604734740973
 20
-36.38675400566026
 10
-63.51429713038879
 20
-36.35161403171071
 10
-63.51429713038879
 20
-36.35161403171071
 10
-63.51429713038879
 20
-36.35161403171071
 10
-60.98129067485885
 20
-36.35161403171071
 10
-60.98129067485885
 20
-36.35161403171071
 10
-60.94373913406962
 20
-36.35161403171071
 10
-60.91066621741123
 20
-36.36573892320023
 10
-60.88241643443217
 20
-36.39398870617928
 10
-60.85433890622739
 20
-36.42223848915833
 10
-60.84021401473787
 20
-36.45496689626821
 10
-60.84021401473787
 20
-36.49251843705743
 10
-60.84021401473787
 20
-36.53489311152601
 10
-60.85433890622739
 20
-36.56899955682997
 10
-60.88241643443217
 20
-36.59483777296935
 10
-60.91066621741123
 20
-36.62102049865725
 10
-60.94373913406962
 20
-36.63376735195267
 10
-60.98129067485885
 20
-36.63376735195267
 10
-60.98129067485885
 20
-36.63376735195267
 10
-63.64124889902025
 20
-36.63376735195267
 10
-63.64124889902025
 20
-36.63376735195267
 10
-63.67897269458373
 20
-36.63376735195267
 10
-63.7117011016936
 20
-36.61964246046315
 10
-63.73995088467265
 20
-36.5913926774841
 10
-63.7682006676517
 20
-36.56314289450505
 10
-63.78232555914123
 20
-36.53041448739518
 10
-63.78232555914123
 20
-36.49251843705743
 10
-63.78232555914123
 20
-36.49251843705743
 10
-63.78232555914123
 20
-31.83612737919375
 10
-63.78232555914123
 20
-31.83612737919375
 10
-63.78232555914123
 20
-31.798231328856
 10
-63.7682006676517
 20
-31.76550292174613
 10
-63.73995088467265
 20
-31.73725313876708
 10
-63.7117011016936
 20
-31.70900335578803
 10
-63.67897269458373
 20
-31.69487846429851
 10
-63.64124889902025
 20
-31.69487846429851
 97
        0
 97
        1
330
C5
 75
     2
 76
     1
 98
        1
 10
0.0
 20
0.0
450
        0
451
        0
460
0.0
461
0.0
452
        0
462
0.0
453
        0
470

  0
SPLINE
  5
C7
330
BA
100
AcDbEntity
  8
0
100
AcDbSpline
210
0.0
220
0.0
230
1.0
 70
    11
 71
     3
 72
    35
 73
    31
 74
     0
 42
0.0000000001
 43
0.0000000001
 40
0.0
 40
0.0
 40
0.0
 40
0.0
 40
1.0
 40
1.0
 40
1.0
 40
2.0
 40
2.0
 40
2.0
 40
3.0
 40
3.0
 40
3.0
 40
4.0
 40
4.0
 40
4.0
 40
5.0
 40
5.0
 40
5.0
 40
6.0
 40
6.0
 40
6.0
 40
7.0
 40
7.0
 40
7.0
 40
8.0
 40
8.0
 40
8.0
 40
9.0
 40
9.0
 40
9.0
 40
10.0
 40
10.0
 40
10.0
 40
10.0
 10
-59.55605467261099
 20
-34.14330782566557
 30
0.0
 10
-59.55605467261099
 20
-34.14330782566557
 30
0.0
 10
-57.742900918724
 20
-34.14330782566557
 30
0.0
 10
-57.742900918724
 20
-34.14330782566557
 30
0.0
 10
-57.55479870522936
 20
-34.12435980049669
 30
0.0
 10
-57.38064912844998
 20
-34.0678602345386
 30
0.0
 10
-57.22079669793439
 20
-33.97380912779127
 30
0.0
 10
-57.0609442674188
 20
-33.87975802104395
 30
0.0
 10
-56.93037514852782
 20
-33.74815537350741
 30
0.0
 10
-56.82908934126148
 20
-33.57865667563312
 30
0.0
 10
-56.7279757887694
 20
-33.40950248730735
 30
0.0
 10
-56.67750513991048
 20
-33.20934243961433
 30
0.0
 10
-56.67750513991048
 20
-32.97886555165112
 30
0.0
 10
-56.67750513991048
 20
-32.69223360727834
 30
0.0
 10
-56.77982447582241
 20
-32.45348849015052
 30
0.0
 10
-56.98429089287198
 20
-32.26297470981621
 30
0.0
 10
-57.18892956469582
 20
-32.07246092948189
 30
0.0
 10
-57.46539847738713
 20
-31.97703178454047
 30
0.0
 10
-57.81335312139735
 20
-31.97703178454047
 30
0.0
 10
-57.81335312139735
 20
-31.97703178454047
 30
0.0
 10
-59.52074244388718
 20
-31.97703178454047
 30
0.0
 10
-59.52074244388718
 20
-31.97703178454047
 30
0.0
 10
-59.52074244388718
 20
-31.97703178454047
 30
0.0
 10
-59.48560246993763
 20
-31.9277669191014
 30
0.0
 10
-59.48560246993763
 20
-31.9277669191014
 30
0.0
 10
-59.48560246993763
 20
-31.9277669191014
 30
0.0
 10
-59.48560246993763
 20
-34.22082247408368
 30
0.0
 10
-59.48560246993763
 20
-34.22082247408368
 30
0.0
 10
-59.48560246993763
 20
-34.22082247408368
 30
0.0
 10
-59.55605467261099
 20
-34.14330782566557
 30
0.0
 10
-59.55605467261099
 20
-34.14330782566557
 30
0.0
  0
SPLINE
  5
C8
330
BA
100
AcDbEntity
  8
0
100
AcDbSpline
210
0.0
220
0.0
230
1.0
 70
     9
 71
     3
 72
   113
 73
   109
 74
     0
 42
0.0000000001
 43
0.0000000001
 40
0.0
 40
0.0
 40
0.0
 40
0.0
 40
1.0
 40
1.0
 40
1.0
 40
2.0
 40
2.0
 40
2.0
 40
3.0
 40
3.0
 40
3.0
 40
4.0
 40
4.0
 40
4.0
 40
5.0
 40
5.0
 40
5.0
 40
6.0
 40
6.0
 40
6.0
 40
7.0
 40
7.0
 40
7.0
 40
8.0
 40
8.0
 40
8.0
 40
9.0
 40
9.0
 40
9.0
 40
10.0
 40
10.0
 40
10.0
 40
11.0
 40
11.0
 40
11.0
 40
12.0
 40
12.0
 40
12.0
 40
13.0
 40
13.0
 40
13.0
 40
14.0
 40
14.0
 40
14.0
 40
15.0
 40
15.0
 40
15.0
 40
16.0
 40
16.0
 40
16.0
 40
17.0
 40
17.0
 40
17.0
 40
18.0
 40
18.0
 40
18.0
 40
19.0
 40
19.0
 40
19.0
 40
20.0
 40
20.0
 40
20.0
 40
21.0
 40
21.0
 40
21.0
 40
22.0
 40
22.0
 40
22.0
 40
23.0
 40
23.0
 40
23.0
 40
24.0
 40
24.0
 40
24.0
 40
25.0
 40
25.0
 40
25.0
 40
26.0
 40
26.0
 40
26.0
 40
27.0
 40
27.0
 40
27.0
 40
28.0
 40
28.0
 40
28.0
 40
29.0
 40
29.0
 40
29.0
 40
30.0
 40
30.0
 40
30.0
 40
31.0
 40
31.0
 40
31.0
 40
32.0
 40
32.0
 40
32.0
 40
33.0
 40
33.0
 40
33.0
 40
34.0
 40
34.0
 40
34.0
 40
35.0
 40
35.0
 40
35.0
 40
36.0
 40
36.0
 40
36.0
 40
36.0
 10
-59.63374157580337
 20
-36.63376735195267
 30
0.0
 10
-59.68076712917703
 20
-36.63376735195267
 30
0.0
 10
-59.71728514132068
 20
-36.61964246046315
 30
0.0
 10
-59.74312335746006
 20
-36.5913926774841
 30
0.0
 10
-59.76896157359942
 20
-36.56314289450505
 30
0.0
 10
-59.78188068166911
 20
-36.53041448739518
 30
0.0
 10
-59.78188068166911
 20
-36.49251843705743
 30
0.0
 10
-59.78188068166911
 20
-36.49251843705743
 30
0.0
 10
-59.78188068166911
 20
-31.83612737919375
 30
0.0
 10
-59.78188068166911
 20
-31.83612737919375
 30
0.0
 10
-59.78188068166911
 20
-31.798231328856
 30
0.0
 10
-59.76775579017959
 20
-31.76550292174613
 30
0.0
 10
-59.73950600720055
 20
-31.73725313876708
 30
0.0
 10
-59.7112562242215
 20
-31.70900335578803
 30
0.0
 10
-59.67852781711162
 20
-31.69487846429851
 30
0.0
 10
-59.64080402154813
 20
-31.69487846429851
 30
0.0
 10
-59.64080402154813
 20
-31.69487846429851
 30
0.0
 10
-57.77804089267355
 20
-31.69487846429851
 30
0.0
 10
-57.77804089267355
 20
-31.69487846429851
 30
0.0
 10
-57.50053845133667
 20
-31.69487846429851
 30
0.0
 10
-57.25714245530377
 20
-31.75034450161103
 30
0.0
 10
-57.04785290457484
 20
-31.86058755713902
 30
0.0
 10
-56.83856335384592
 20
-31.97117512221554
 30
0.0
 10
-56.67509357307081
 20
-32.12310383311506
 30
0.0
 10
-56.55744356224953
 20
-32.31568467074052
 30
0.0
 10
-56.43996580620251
 20
-32.50861001791451
 30
0.0
 10
-56.38105467340474
 20
-32.72737358122788
 30
0.0
 10
-56.38105467340474
 20
-32.97197536068062
 30
0.0
 10
-56.38105467340474
 20
-33.18832735715431
 30
0.0
 10
-56.41998425238806
 20
-33.38366427116798
 30
0.0
 10
-56.49749890080618
 20
-33.55764159317309
 30
0.0
 10
-56.57518580399856
 20
-33.73161891517821
 30
0.0
 10
-56.68336180223541
 20
-33.8763129255587
 30
0.0
 10
-56.82202689551672
 20
-33.99137911476605
 30
0.0
 10
-56.96086424357229
 20
-34.10678981352191
 30
0.0
 10
-57.1196831454423
 20
-34.19016112426496
 30
0.0
 10
-57.29831134635251
 20
-34.24183755654371
 30
0.0
 10
-57.29831134635251
 20
-34.24183755654371
 30
0.0
 10
-57.62283934106304
 20
-34.18533799058561
 30
0.0
 10
-57.62283934106304
 20
-34.18533799058561
 30
0.0
 10
-57.4347371275684
 20
-34.18533799058561
 30
0.0
 10
-57.25593667188394
 20
-34.23391383692763
 30
0.0
 10
-57.0866102287839
 20
-34.33003200096611
 30
0.0
 10
-56.91728378568388
 20
-34.4264946745531
 30
0.0
 10
-56.77861869240256
 20
-34.56774358944834
 30
0.0
 10
-56.67044269416572
 20
-34.75343423610331
 30
0.0
 10
-56.56226669592888
 20
-34.9394693923068
 30
0.0
 10
-56.50817869681046
 20
-35.16615667523624
 30
0.0
 10
-56.50817869681046
 20
-35.43418510398868
 30
0.0
 10
-56.50817869681046
 20
-35.66500650150042
 30
0.0
 10
-56.49749890080618
 20
-35.84001735215111
 30
0.0
 10
-56.47631156357189
 20
-35.9599066750378
 30
0.0
 10
-56.4551242263376
 20
-36.0797959979245
 30
0.0
 10
-56.42704669813283
 20
-36.16799044234689
 30
0.0
 10
-56.39173446940901
 20
-36.22449000830499
 30
0.0
 10
-56.3564222406852
 20
-36.28098957426309
 30
0.0
 10
-56.31525334963646
 20
-36.32577581557133
 30
0.0
 10
-56.2682277962628
 20
-36.35850422268121
 30
0.0
 10
-56.23997801328376
 20
-36.37745224785008
 30
0.0
 10
-56.21879067604947
 20
-36.40087889714978
 30
0.0
 10
-56.20466578455995
 20
-36.42912868012884
 30
0.0
 10
-56.19054089307041
 20
-36.45737846310788
 30
0.0
 10
-56.18830158100501
 20
-36.49045137976628
 30
0.0
 10
-56.19760333881519
 20
-36.5280029205555
 30
0.0
 10
-56.20707735139962
 20
-36.55625270353455
 30
0.0
 10
-56.22240802630898
 20
-36.57864582418868
 30
0.0
 10
-56.24359536354327
 20
-36.59483777296935
 30
0.0
 10
-56.26461044600329
 20
-36.61137423129855
 30
0.0
 10
-56.28700356665742
 20
-36.62205402730283
 30
0.0
 10
-56.31060247073138
 20
-36.62687716098217
 30
0.0
 10
-56.33420137480534
 20
-36.631355785113
 30
0.0
 10
-56.35986733617045
 20
-36.62687716098217
 30
0.0
 10
-56.3881171191495
 20
-36.61275226949264
 30
0.0
 10
-56.45409069769204
 20
-36.5748562191549
 30
0.0
 10
-56.51868623804047
 20
-36.51870116274532
 30
0.0
 10
-56.58224824974332
 20
-36.44325357161836
 30
0.0
 10
-56.64563800667192
 20
-36.36815049003991
 30
0.0
 10
-56.69852022237051
 20
-36.25273979128404
 30
0.0
 10
-56.74089489683908
 20
-36.0977104944478
 30
0.0
 10
-56.78326957130765
 20
-35.94233668806303
 30
0.0
 10
-56.80445690854194
 20
-35.72116155790999
 30
0.0
 10
-56.80445690854194
 20
-35.43418510398868
 30
0.0
 10
-56.80445690854194
 20
-35.21335448338417
 30
0.0
 10
-56.83856335384592
 20
-35.03696559453937
 30
0.0
 10
-56.90677624445386
 20
-34.9050184374543
 30
0.0
 10
-56.97498913506181
 20
-34.77341578991776
 30
0.0
 10
-57.06197779606437
 20
-34.67247449219994
 30
0.0
 10
-57.16774222746153
 20
-34.60185003475232
 30
0.0
 10
-57.27367891363297
 20
-34.5312255773047
 30
0.0
 10
-57.3865057907749
 20
-34.4843722787053
 30
0.0
 10
-57.50639511366159
 20
-34.46060111985707
 30
0.0
 10
-57.62645669132255
 20
-34.43717447055738
 30
0.0
 10
-57.73583847297924
 20
-34.42546114590753
 30
0.0
 10
-57.83454045863164
 20
-34.42546114590753
 30
0.0
 10
-57.83454045863164
 20
-34.42546114590753
 30
0.0
 10
-59.54899222686623
 20
-34.42546114590753
 30
0.0
 10
-59.54899222686623
 20
-34.42546114590753
 30
0.0
 10
-59.54899222686623
 20
-34.42546114590753
 30
0.0
 10
-59.48560246993763
 20
-34.34071179697038
 30
0.0
 10
-59.48560246993763
 20
-34.34071179697038
 30
0.0
 10
-59.48560246993763
 20
-34.34071179697038
 30
0.0
 10
-59.48560246993763
 20
-36.49251843705743
 30
0.0
 10
-59.48560246993763
 20
-36.49251843705743
 30
0.0
 10
-59.48560246993763
 20
-36.53041448739518
 30
0.0
 10
-59.49972736142715
 20
-36.56314289450505
 30
0.0
 10
-59.52780488963194
 20
-36.5913926774841
 30
0.0
 10
-59.55605467261099
 20
-36.61964246046315
 30
0.0
 10
-59.5913669013348
 20
-36.63376735195267
 30
0.0
 10
-59.63374157580337
 20
-36.63376735195267
 30
0.0
  0
HATCH
  5
C9
330
BA
100
AcDbEntity
  8
0
 62
    18
420
        0
440
 33554687
100
AcDbHatch
 10
0.0
 20
0.0
 30
0.0
210
0.0
220
0.0
230
1.0
  2
SOLID
 70
     1
 71
     1
 91
        2
 92
        1
 93
        1
 72
     4
 94
        3
 73
     0
 74
     0
 95
       35
 96
       31
 40
0.0
 40
0.0
 40
0.0
 40
0.0
 40
1.0
 40
1.0
 40
1.0
 40
2.0
 40
2.0
 40
2.0
 40
3.0
 40
3.0
 40
3.0
 40
4.0
 40
4.0
 40
4.0
 40
5.0
 40
5.0
 40
5.0
 40
6.0
 40
6.0
 40
6.0
 40
7.0
 40
7.0
 40
7.0
 40
8.0
 40
8.0
 40
8.0
 40
9.0
 40
9.0
 40
9.0
 40
10.0
 40
10.0
 40
10.0
 40
10.0
 10
-59.55605467261099
 20
-34.14330782566557
 10
-59.55605467261099
 20
-34.14330782566557
 10
-57.742900918724
 20
-34.14330782566557
 10
-57.742900918724
 20
-34.14330782566557
 10
-57.55479870522936
 20
-34.12435980049669
 10
-57.38064912844998
 20
-34.0678602345386
 10
-57.22079669793439
 20
-33.97380912779127
 10
-57.0609442674188
 20
-33.87975802104395
 10
-56.93037514852782
 20
-33.74815537350741
 10
-56.82908934126148
 20
-33.57865667563312
 10
-56.7279757887694
 20
-33.40950248730735
 10
-56.67750513991048
 20
-33.20934243961433
 10
-56.67750513991048
 20
-32.97886555165112
 10
-56.67750513991048
 20
-32.69223360727834
 10
-56.77982447582241
 20
-32.45348849015052
 10
-56.98429089287198
 20
-32.26297470981621
 10
-57.18892956469582
 20
-32.07246092948189
 10
-57.46539847738713
 20
-31.97703178454047
 10
-57.81335312139735
 20
-31.97703178454047
 10
-57.81335312139735
 20
-31.97703178454047
 10
-59.52074244388718
 20
-31.97703178454047
 10
-59.52074244388718
 20
-31.97703178454047
 10
-59.52074244388718
 20
-31.97703178454047
 10
-59.48560246993763
 20
-31.9277669191014
 10
-59.48560246993763
 20
-31.9277669191014
 10
-59.48560246993763
 20
-31.9277669191014
 10
-59.48560246993763
 20
-34.22082247408368
 10
-59.48560246993763
 20
-34.22082247408368
 10
-59.48560246993763
 20
-34.22082247408368
 10
-59.55605467261099
 20
-34.14330782566557
 10
-59.55605467261099
 20
-34.14330782566557
 97
        0
 97
        1
330
C7
 92
        1
 93
        1
 72
     4
 94
        3
 73
     0
 74
     0
 95
      113
 96
      109
 40
0.0
 40
0.0
 40
0.0
 40
0.0
 40
1.0
 40
1.0
 40
1.0
 40
2.0
 40
2.0
 40
2.0
 40
3.0
 40
3.0
 40
3.0
 40
4.0
 40
4.0
 40
4.0
 40
5.0
 40
5.0
 40
5.0
 40
6.0
 40
6.0
 40
6.0
 40
7.0
 40
7.0
 40
7.0
 40
8.0
 40
8.0
 40
8.0
 40
9.0
 40
9.0
 40
9.0
 40
10.0
 40
10.0
 40
10.0
 40
11.0
 40
11.0
 40
11.0
 40
12.0
 40
12.0
 40
12.0
 40
13.0
 40
13.0
 40
13.0
 40
14.0
 40
14.0
 40
14.0
 40
15.0
 40
15.0
 40
15.0
 40
16.0
 40
16.0
 40
16.0
 40
17.0
 40
17.0
 40
17.0
 40
18.0
 40
18.0
 40
18.0
 40
19.0
 40
19.0
 40
19.0
 40
20.0
 40
20.0
 40
20.0
 40
21.0
 40
21.0
 40
21.0
 40
22.0
 40
22.0
 40
22.0
 40
23.0
 40
23.0
 40
23.0
 40
24.0
 40
24.0
 40
24.0
 40
25.0
 40
25.0
 40
25.0
 40
26.0
 40
26.0
 40
26.0
 40
27.0
 40
27.0
 40
27.0
 40
28.0
 40
28.0
 40
28.0
 40
29.0
 40
29.0
 40
29.0
 40
30.0
 40
30.0
 40
30.0
 40
31.0
 40
31.0
 40
31.0
 40
32.0
 40
32.0
 40
32.0
 40
33.0
 40
33.0
 40
33.0
 40
34.0
 40
34.0
 40
34.0
 40
35.0
 40
35.0
 40
35.0
 40
36.0
 40
36.0
 40
36.0
 40
36.0
 10
-59.63374157580337
 20
-36.63376735195267
 10
-59.68076712917703
 20
-36.63376735195267
 10
-59.71728514132068
 20
-36.61964246046315
 10
-59.74312335746006
 20
-36.5913926774841
 10
-59.76896157359942
 20
-36.56314289450505
 10
-59.78188068166911
 20
-36.53041448739518
 10
-59.78188068166911
 20
-36.49251843705743
 10
-59.78188068166911
 20
-36.49251843705743
 10
-59.78188068166911
 20
-31.83612737919375
 10
-59.78188068166911
 20
-31.83612737919375
 10
-59.78188068166911
 20
-31.798231328856
 10
-59.76775579017959
 20
-31.76550292174613
 10
-59.73950600720055
 20
-31.73725313876708
 10
-59.7112562242215
 20
-31.70900335578803
 10
-59.67852781711162
 20
-31.69487846429851
 10
-59.64080402154813
 20
-31.69487846429851
 10
-59.64080402154813
 20
-31.69487846429851
 10
-57.77804089267355
 20
-31.69487846429851
 10
-57.77804089267355
 20
-31.69487846429851
 10
-57.50053845133667
 20
-31.69487846429851
 10
-57.25714245530377
 20
-31.75034450161103
 10
-57.04785290457484
 20
-31.86058755713902
 10
-56.83856335384592
 20
-31.97117512221554
 10
-56.67509357307081
 20
-32.12310383311506
 10
-56.55744356224953
 20
-32.31568467074052
 10
-56.43996580620251
 20
-32.50861001791451
 10
-56.38105467340474
 20
-32.72737358122788
 10
-56.38105467340474
 20
-32.97197536068062
 10
-56.38105467340474
 20
-33.18832735715431
 10
-56.41998425238806
 20
-33.38366427116798
 10
-56.49749890080618
 20
-33.55764159317309
 10
-56.57518580399856
 20
-33.73161891517821
 10
-56.68336180223541
 20
-33.8763129255587
 10
-56.82202689551672
 20
-33.99137911476605
 10
-56.96086424357229
 20
-34.10678981352191
 10
-57.1196831454423
 20
-34.19016112426496
 10
-57.29831134635251
 20
-34.24183755654371
 10
-57.29831134635251
 20
-34.24183755654371
 10
-57.62283934106304
 20
-34.18533799058561
 10
-57.62283934106304
 20
-34.18533799058561
 10
-57.4347371275684
 20
-34.18533799058561
 10
-57.25593667188394
 20
-34.23391383692763
 10
-57.0866102287839
 20
-34.33003200096611
 10
-56.91728378568388
 20
-34.4264946745531
 10
-56.77861869240256
 20
-34.56774358944834
 10
-56.67044269416572
 20
-34.75343423610331
 10
-56.56226669592888
 20
-34.9394693923068
 10
-56.50817869681046
 20
-35.16615667523624
 10
-56.50817869681046
 20
-35.43418510398868
 10
-56.50817869681046
 20
-35.66500650150042
 10
-56.49749890080618
 20
-35.84001735215111
 10
-56.47631156357189
 20
-35.9599066750378
 10
-56.4551242263376
 20
-36.0797959979245
 10
-56.42704669813283
 20
-36.16799044234689
 10
-56.39173446940901
 20
-36.22449000830499
 10
-56.3564222406852
 20
-36.28098957426309
 10
-56.31525334963646
 20
-36.32577581557133
 10
-56.2682277962628
 20
-36.35850422268121
 10
-56.23997801328376
 20
-36.37745224785008
 10
-56.21879067604947
 20
-36.40087889714978
 10
-56.20466578455995
 20
-36.42912868012884
 10
-56.19054089307041
 20
-36.45737846310788
 10
-56.18830158100501
 20
-36.49045137976628
 10
-56.19760333881519
 20
-36.5280029205555
 10
-56.20707735139962
 20
-36.55625270353455
 10
-56.22240802630898
 20
-36.57864582418868
 10
-56.24359536354327
 20
-36.59483777296935
 10
-56.26461044600329
 20
-36.61137423129855
 10
-56.28700356665742
 20
-36.62205402730283
 10
-56.31060247073138
 20
-36.62687716098217
 10
-56.33420137480534
 20
-36.631355785113
 10
-56.35986733617045
 20
-36.62687716098217
 10
-56.3881171191495
 20
-36.61275226949264
 10
-56.45409069769204
 20
-36.5748562191549
 10
-56.51868623804047
 20
-36.51870116274532
 10
-56.58224824974332
 20
-36.44325357161836
 10
-56.64563800667192
 20
-36.36815049003991
 10
-56.69852022237051
 20
-36.25273979128404
 10
-56.74089489683908
 20
-36.0977104944478
 10
-56.78326957130765
 20
-35.94233668806303
 10
-56.80445690854194
 20
-35.72116155790999
 10
-56.80445690854194
 20
-35.43418510398868
 10
-56.80445690854194
 20
-35.21335448338417
 10
-56.83856335384592
 20
-35.03696559453937
 10
-56.90677624445386
 20
-34.9050184374543
 10
-56.97498913506181
 20
-34.77341578991776
 10
-57.06197779606437
 20
-34.67247449219994
 10
-57.16774222746153
 20
-34.60185003475232
 10
-57.27367891363297
 20
-34.5312255773047
 10
-57.3865057907749
 20
-34.4843722787053
 10
-57.50639511366159
 20
-34.46060111985707
 10
-57.62645669132255
 20
-34.43717447055738
 10
-57.73583847297924
 20
-34.42546114590753
 10
-57.83454045863164
 20
-34.42546114590753
 10
-57.83454045863164
 20
-34.42546114590753
 10
-59.54899222686623
 20
-34.42546114590753
 10
-59.54899222686623
 20
-34.42546114590753
 10
-59.54899222686623
 20
-34.42546114590753
 10
-59.48560246993763
 20
-34.34071179697038
 10
-59.48560246993763
 20
-34.34071179697038
 10
-59.48560246993763
 20
-34.34071179697038
 10
-59.48560246993763
 20
-36.49251843705743
 10
-59.48560246993763
 20
-36.49251843705743
 10
-59.48560246993763
 20
-36.53041448739518
 10
-59.49972736142715
 20
-36.56314289450505
 10
-59.52780488963194
 20
-36.5913926774841
 10
-59.55605467261099
 20
-36.61964246046315
 10
-59.5913669013348
 20
-36.63376735195267
 10
-59.63374157580337
 20
-36.63376735195267
 97
        0
 97
        1
330
C8
 75
     2
 76
     1
 98
        1
 10
0.0
 20
0.0
450
        0
451
        0
460
0.0
461
0.0
452
        0
462
0.0
453
        0
470

  0
SPLINE
  5
CA
330
BA
100
AcDbEntity
  8
0
100
AcDbSpline
210
0.0
220
0.0
230
1.0
 70
     9
 71
     3
 72
   137
 73
   133
 74
     0
 42
0.0000000001
 43
0.0000000001
 40
0.0
 40
0.0
 40
0.0
 40
0.0
 40
1.0
 40
1.0
 40
1.0
 40
2.0
 40
2.0
 40
2.0
 40
3.0
 40
3.0
 40
3.0
 40
4.0
 40
4.0
 40
4.0
 40
5.0
 40
5.0
 40
5.0
 40
6.0
 40
6.0
 40
6.0
 40
7.0
 40
7.0
 40
7.0
 40
8.0
 40
8.0
 40
8.0
 40
9.0
 40
9.0
 40
9.0
 40
10.0
 40
10.0
 40
10.0
 40
11.0
 40
11.0
 40
11.0
 40
12.0
 40
12.0
 40
12.0
 40
13.0
 40
13.0
 40
13.0
 40
14.0
 40
14.0
 40
14.0
 40
15.0
 40
15.0
 40
15.0
 40
16.0
 40
16.0
 40
16.0
 40
17.0
 40
17.0
 40
17.0
 40
18.0
 40
18.0
 40
18.0
 40
19.0
 40
19.0
 40
19.0
 40
20.0
 40
20.0
 40
20.0
 40
21.0
 40
21.0
 40
21.0
 40
22.0
 40
22.0
 40
22.0
 40
23.0
 40
23.0
 40
23.0
 40
24.0
 40
24.0
 40
24.0
 40
25.0
 40
25.0
 40
25.0
 40
26.0
 40
26.0
 40
26.0
 40
27.0
 40
27.0
 40
27.0
 40
28.0
 40
28.0
 40
28.0
 40
29.0
 40
29.0
 40
29.0
 40
30.0
 40
30.0
 40
30.0
 40
31.0
 40
31.0
 40
31.0
 40
32.0
 40
32.0
 40
32.0
 40
33.0
 40
33.0
 40
33.0
 40
34.0
 40
34.0
 40
34.0
 40
35.0
 40
35.0
 40
35.0
 40
36.0
 40
36.0
 40
36.0
 40
37.0
 40
37.0
 40
37.0
 40
38.0
 40
38.0
 40
38.0
 40
39.0
 40
39.0
 40
39.0
 40
40.0
 40
40.0
 40
40.0
 40
41.0
 40
41.0
 40
41.0
 40
42.0
 40
42.0
 40
42.0
 40
43.0
 40
43.0
 40
43.0
 40
44.0
 40
44.0
 40
44.0
 40
44.0
 10
-53.80584579818048
 20
-36.70439180940029
 30
0.0
 10
-54.17274846735959
 20
-36.70887043353112
 30
0.0
 10
-54.48797470425995
 20
-36.64789224344219
 30
0.0
 10
-54.7513522541073
 20
-36.52076822003647
 30
0.0
 10
-55.01490205872891
 20
-36.39398870617928
 30
0.0
 10
-55.26880559599183
 20
-36.20795354997579
 30
0.0
 10
-55.51340737544457
 20
-35.96335177052305
 30
0.0
 10
-55.522881388029
 20
-35.95405001271288
 30
0.0
 10
-55.53218314583918
 20
-35.94130315941745
 30
0.0
 10
-55.54148490364935
 20
-35.92476670108825
 30
0.0
 10
-55.55113117100805
 20
-35.90823024275906
 30
0.0
 10
-55.55560979513888
 20
-35.88583712210493
 30
0.0
 10
-55.55560979513888
 20
-35.85758733912589
 30
0.0
 10
-55.55560979513888
 20
-35.82003579833666
 30
0.0
 10
-55.53924559158394
 20
-35.78351778619301
 30
0.0
 10
-55.5063449296998
 20
-35.74837781224346
 30
0.0
 10
-55.47344426781567
 20
-35.71289332874539
 30
0.0
 10
-55.43813203909186
 20
-35.69532334177062
 30
0.0
 10
-55.40040824352837
 20
-35.69532334177062
 30
0.0
 10
-55.35820582383406
 20
-35.69532334177062
 30
0.0
 10
-55.31824271620516
 20
-35.71668293377916
 30
0.0
 10
-55.28051892064167
 20
-35.75871309869921
 30
0.0
 10
-55.09241670714704
 20
-35.97540960472143
 30
0.0
 10
-54.87244736041383
 20
-36.13974065936785
 30
0.0
 10
-54.62078313521633
 20
-36.25273979128404
 30
0.0
 10
-54.36929116479309
 20
-36.36573892320023
 30
0.0
 10
-54.10694714359132
 20
-36.42223848915833
 30
0.0
 10
-53.83409558115953
 20
-36.42223848915833
 30
0.0
 10
-53.59431693538614
 20
-36.42223848915833
 30
0.0
 10
-53.38020425097787
 20
-36.38330891017501
 30
0.0
 10
-53.19210203748323
 20
-36.30579426175689
 30
0.0
 10
-53.00399982398858
 20
-36.22793510379024
 30
0.0
 10
-52.85586071812284
 20
-36.11769204826224
 30
0.0
 10
-52.74751246511173
 20
-35.97403156652733
 30
0.0
 10
-52.63933646687489
 20
-35.83071559434094
 30
0.0
 10
-52.58524846775646
 20
-35.66259493466074
 30
0.0
 10
-52.58524846775646
 20
-35.46966958748675
 30
0.0
 10
-52.59007160143582
 20
-35.22954643216484
 30
0.0
 10
-52.65587292520408
 20
-35.03696559453937
 30
0.0
 10
-52.78282469383555
 20
-34.89089354596478
 30
0.0
 10
-52.909776462467
 20
-34.74516600693871
 30
0.0
 10
-53.07341849801638
 20
-34.62527668405202
 30
0.0
 10
-53.27323403616086
 20
-34.5312255773047
 30
0.0
 10
-53.47322182907961
 20
-34.43717447055738
 30
0.0
 10
-53.68371716322838
 20
-34.35035806432908
 30
0.0
 10
-53.90472003860715
 20
-34.27008733952276
 30
0.0
 10
-54.07869736061227
 20
-34.20428601575448
 30
0.0
 10
-54.25043537055198
 20
-34.13607312514654
 30
0.0
 10
-54.41976181365201
 20
-34.06544866769892
 30
0.0
 10
-54.58908825675203
 20
-33.9948242102513
 30
0.0
 10
-54.74205049629713
 20
-33.9093858422171
 30
0.0
 10
-54.87830402273876
 20
-33.80810003495076
 30
0.0
 10
-55.01490205872891
 20
-33.70681422768441
 30
0.0
 10
-55.1229058021915
 20
-33.58003471382722
 30
0.0
 10
-55.2028320174493
 20
-33.42707247428212
 30
0.0
 10
-55.28293048748135
 20
-33.27411023473703
 30
0.0
 10
-55.32289359511025
 20
-33.08497449259681
 30
0.0
 10
-55.32289359511025
 20
-32.85897622876443
 30
0.0
 10
-55.32289359511025
 20
-32.62849934080121
 30
0.0
 10
-55.26053736682722
 20
-32.42041557349212
 30
0.0
 10
-55.13582491026118
 20
-32.23472492683715
 30
0.0
 10
-55.0112847084694
 20
-32.04903428018218
 30
0.0
 10
-54.83248425278493
 20
-31.90055066476792
 30
0.0
 10
-54.59959579798205
 20
-31.7899630996914
 30
0.0
 10
-54.36687959795342
 20
-31.6797200441634
 30
0.0
 10
-54.09058294003639
 20
-31.62425400685088
 30
0.0
 10
-53.77070582423094
 20
-31.62425400685088
 30
0.0
 10
-53.50250514070424
 20
-31.62425400685088
 30
0.0
 10
-53.24153915769656
 20
-31.67248534364438
 30
0.0
 10
-52.98746336565939
 20
-31.76894801723138
 30
0.0
 10
-52.73338757362221
 20
-31.86541069081837
 30
0.0
 10
-52.53357203547771
 20
-32.01010470119886
 30
0.0
 10
-52.38767224167739
 20
-32.20303004837286
 30
0.0
 10
-52.34081894307799
 20
-32.26883137214113
 30
0.0
 10
-52.31722003900403
 20
-32.3180962375802
 30
0.0
 10
-52.31722003900403
 20
-32.3511691542386
 30
0.0
 10
-52.31722003900403
 20
-32.38389756134847
 30
0.0
 10
-52.33479002597881
 20
-32.41697047800687
 30
0.0
 10
-52.37010225470261
 20
-32.44969888511675
 30
0.0
 10
-52.40541448342643
 20
-32.48277180177514
 30
0.0
 10
-52.44417180763548
 20
-32.49930826010434
 30
0.0
 10
-52.48654648210406
 20
-32.49930826010434
 30
0.0
 10
-52.52427027766755
 20
-32.49930826010434
 30
0.0
 10
-52.554759372712
 20
-32.48518336861482
 30
0.0
 10
-52.57818602201171
 20
-32.45693358563577
 30
0.0
 10
-52.66293537094885
 20
-32.34393445371958
 30
0.0
 10
-52.76525470686078
 20
-32.246438251487
 30
0.0
 10
-52.88514402974747
 20
-32.16410046938953
 30
0.0
 10
-53.00503335263416
 20
-32.08176268729206
 30
0.0
 10
-53.14042560520448
 20
-32.01837293036347
 30
0.0
 10
-53.29080402313564
 20
-31.97358668905522
 30
0.0
 10
-53.44135469584105
 20
-31.92880044774697
 30
0.0
 10
-53.60120712635665
 20
-31.90640732709284
 30
0.0
 10
-53.77070582423094
 20
-31.90640732709284
 30
0.0
 10
-54.00118271219415
 20
-31.90640732709284
 30
0.0
 10
-54.21047226292308
 20
-31.94430337743059
 30
0.0
 10
-54.39857447641772
 20
-32.01940645900904
 30
0.0
 10
-54.58667668991235
 20
-32.09485405013601
 30
0.0
 10
-54.73722736261778
 20
-32.20165201017876
 30
0.0
 10
-54.85005423975971
 20
-32.34048935823433
 30
0.0
 10
-54.96305337167591
 20
-32.47932670628989
 30
0.0
 10
-55.01938068285974
 20
-32.64985893280976
 30
0.0
 10
-55.01938068285974
 20
-32.85208603779393
 30
0.0
 10
-55.01938068285974
 20
-33.06843803426762
 30
0.0
 10
-54.95719670935098
 20
-33.24586045175799
 30
0.0
 10
-54.83248425278493
 20
-33.38469779981355
 30
0.0
 10
-54.70794405099315
 20
-33.52353514786912
 30
0.0
 10
-54.54912514912313
 20
-33.63860133707647
 30
0.0
 10
-54.35619980194914
 20
-33.73024087698411
 30
0.0
 10
-54.16344670954941
 20
-33.82222492644028
 30
0.0
 10
-53.96587048347034
 20
-33.90559623718333
 30
0.0
 10
-53.76364337848617
 20
-33.9810438283103
 30
0.0
 10
-53.5848429228017
 20
-34.04202201839922
 30
0.0
 10
-53.40724825053708
 20
-34.10920138036159
 30
0.0
 10
-53.23085936169229
 20
-34.18189289510036
 30
0.0
 10
-53.0544704728475
 20
-34.25492891938766
 30
0.0
 10
-52.89461804233191
 20
-34.34553493064973
 30
0.0
 10
-52.75112981537125
 20
-34.45371092888657
 30
0.0
 10
-52.60764158841059
 20
-34.56188692712342
 30
0.0
 10
-52.49360892784882
 20
-34.69831270833932
 30
0.0
 10
-52.40885957891167
 20
-34.86298827253425
 30
0.0
 10
-52.32428248474879
 20
-35.0276638367292
 30
0.0
 10
-52.28190781028022
 20
-35.23436956584419
 30
0.0
 10
-52.28190781028022
 20
-35.48379447897628
 30
0.0
 10
-52.28190781028022
 20
-35.70014647544996
 30
0.0
 10
-52.34426403856324
 20
-35.89996201359446
 30
0.0
 10
-52.46880424035502
 20
-36.08358560295827
 30
0.0
 10
-52.59351669692106
 20
-36.26686468277357
 30
0.0
 10
-52.76869980234602
 20
-36.41500378863931
 30
0.0
 10
-52.99452581140415
 20
-36.5280029205555
 30
0.0
 10
-53.22035182046228
 20
-36.64065754292317
 30
0.0
 10
-53.49079181605439
 20
-36.69956867572094
 30
0.0
 10
-53.80584579818048
 20
-36.70439180940029
 30
0.0
  0
HATCH
  5
CB
330
BA
100
AcDbEntity
  8
0
 62
    18
420
        0
440
 33554687
100
AcDbHatch
 10
0.0
 20
0.0
 30
0.0
210
0.0
220
0.0
230
1.0
  2
SOLID
 70
     1
 71
     1
 91
        1
 92
        1
 93
        1
 72
     4
 94
        3
 73
     0
 74
     0
 95
      137
 96
      133
 40
0.0
 40
0.0
 40
0.0
 40
0.0
 40
1.0
 40
1.0
 40
1.0
 40
2.0
 40
2.0
 40
2.0
 40
3.0
 40
3.0
 40
3.0
 40
4.0
 40
4.0
 40
4.0
 40
5.0
 40
5.0
 40
5.0
 40
6.0
 40
6.0
 40
6.0
 40
7.0
 40
7.0
 40
7.0
 40
8.0
 40
8.0
 40
8.0
 40
9.0
 40
9.0
 40
9.0
 40
10.0
 40
10.0
 40
10.0
 40
11.0
 40
11.0
 40
11.0
 40
12.0
 40
12.0
 40
12.0
 40
13.0
 40
13.0
 40
13.0
 40
14.0
 40
14.0
 40
14.0
 40
15.0
 40
15.0
 40
15.0
 40
16.0
 40
16.0
 40
16.0
 40
17.0
 40
17.0
 40
17.0
 40
18.0
 40
18.0
 40
18.0
 40
19.0
 40
19.0
 40
19.0
 40
20.0
 40
20.0
 40
20.0
 40
21.0
 40
21.0
 40
21.0
 40
22.0
 40
22.0
 40
22.0
 40
23.0
 40
23.0
 40
23.0
 40
24.0
 40
24.0
 40
24.0
 40
25.0
 40
25.0
 40
25.0
 40
26.0
 40
26.0
 40
26.0
 40
27.0
 40
27.0
 40
27.0
 40
28.0
 40
28.0
 40
28.0
 40
29.0
 40
29.0
 40
29.0
 40
30.0
 40
30.0
 40
30.0
 40
31.0
 40
31.0
 40
31.0
 40
32.0
 40
32.0
 40
32.0
 40
33.0
 40
33.0
 40
33.0
 40
34.0
 40
34.0
 40
34.0
 40
35.0
 40
35.0
 40
35.0
 40
36.0
 40
36.0
 40
36.0
 40
37.0
 40
37.0
 40
37.0
 40
38.0
 40
38.0
 40
38.0
 40
39.0
 40
39.0
 40
39.0
 40
40.0
 40
40.0
 40
40.0
 40
41.0
 40
41.0
 40
41.0
 40
42.0
 40
42.0
 40
42.0
 40
43.0
 40
43.0
 40
43.0
 40
44.0
 40
44.0
 40
44.0
 40
44.0
 10
-53.80584579818048
 20
-36.70439180940029
 10
-54.17274846735959
 20
-36.70887043353112
 10
-54.48797470425995
 20
-36.64789224344219
 10
-54.7513522541073
 20
-36.52076822003647
 10
-55.01490205872891
 20
-36.39398870617928
 10
-55.26880559599183
 20
-36.20795354997579
 10
-55.51340737544457
 20
-35.96335177052305
 10
-55.522881388029
 20
-35.95405001271288
 10
-55.53218314583918
 20
-35.94130315941745
 10
-55.54148490364935
 20
-35.92476670108825
 10
-55.55113117100805
 20
-35.90823024275906
 10
-55.55560979513888
 20
-35.88583712210493
 10
-55.55560979513888
 20
-35.85758733912589
 10
-55.55560979513888
 20
-35.82003579833666
 10
-55.53924559158394
 20
-35.78351778619301
 10
-55.5063449296998
 20
-35.74837781224346
 10
-55.47344426781567
 20
-35.71289332874539
 10
-55.43813203909186
 20
-35.69532334177062
 10
-55.40040824352837
 20
-35.69532334177062
 10
-55.35820582383406
 20
-35.69532334177062
 10
-55.31824271620516
 20
-35.71668293377916
 10
-55.28051892064167
 20
-35.75871309869921
 10
-55.09241670714704
 20
-35.97540960472143
 10
-54.87244736041383
 20
-36.13974065936785
 10
-54.62078313521633
 20
-36.25273979128404
 10
-54.36929116479309
 20
-36.36573892320023
 10
-54.10694714359132
 20
-36.42223848915833
 10
-53.83409558115953
 20
-36.42223848915833
 10
-53.59431693538614
 20
-36.42223848915833
 10
-53.38020425097787
 20
-36.38330891017501
 10
-53.19210203748323
 20
-36.30579426175689
 10
-53.00399982398858
 20
-36.22793510379024
 10
-52.85586071812284
 20
-36.11769204826224
 10
-52.74751246511173
 20
-35.97403156652733
 10
-52.63933646687489
 20
-35.83071559434094
 10
-52.58524846775646
 20
-35.66259493466074
 10
-52.58524846775646
 20
-35.46966958748675
 10
-52.59007160143582
 20
-35.22954643216484
 10
-52.65587292520408
 20
-35.03696559453937
 10
-52.78282469383555
 20
-34.89089354596478
 10
-52.909776462467
 20
-34.74516600693871
 10
-53.07341849801638
 20
-34.62527668405202
 10
-53.27323403616086
 20
-34.5312255773047
 10
-53.47322182907961
 20
-34.43717447055738
 10
-53.68371716322838
 20
-34.35035806432908
 10
-53.90472003860715
 20
-34.27008733952276
 10
-54.07869736061227
 20
-34.20428601575448
 10
-54.25043537055198
 20
-34.13607312514654
 10
-54.41976181365201
 20
-34.06544866769892
 10
-54.58908825675203
 20
-33.9948242102513
 10
-54.74205049629713
 20
-33.9093858422171
 10
-54.87830402273876
 20
-33.80810003495076
 10
-55.01490205872891
 20
-33.70681422768441
 10
-55.1229058021915
 20
-33.58003471382722
 10
-55.2028320174493
 20
-33.42707247428212
 10
-55.28293048748135
 20
-33.27411023473703
 10
-55.32289359511025
 20
-33.08497449259681
 10
-55.32289359511025
 20
-32.85897622876443
 10
-55.32289359511025
 20
-32.62849934080121
 10
-55.26053736682722
 20
-32.42041557349212
 10
-55.13582491026118
 20
-32.23472492683715
 10
-55.0112847084694
 20
-32.04903428018218
 10
-54.83248425278493
 20
-31.90055066476792
 10
-54.59959579798205
 20
-31.7899630996914
 10
-54.36687959795342
 20
-31.6797200441634
 10
-54.09058294003639
 20
-31.62425400685088
 10
-53.77070582423094
 20
-31.62425400685088
 10
-53.50250514070424
 20
-31.62425400685088
 10
-53.24153915769656
 20
-31.67248534364438
 10
-52.98746336565939
 20
-31.76894801723138
 10
-52.73338757362221
 20
-31.86541069081837
 10
-52.53357203547771
 20
-32.01010470119886
 10
-52.38767224167739
 20
-32.20303004837286
 10
-52.34081894307799
 20
-32.26883137214113
 10
-52.31722003900403
 20
-32.3180962375802
 10
-52.31722003900403
 20
-32.3511691542386
 10
-52.31722003900403
 20
-32.38389756134847
 10
-52.33479002597881
 20
-32.41697047800687
 10
-52.37010225470261
 20
-32.44969888511675
 10
-52.40541448342643
 20
-32.48277180177514
 10
-52.44417180763548
 20
-32.49930826010434
 10
-52.48654648210406
 20
-32.49930826010434
 10
-52.52427027766755
 20
-32.49930826010434
 10
-52.554759372712
 20
-32.48518336861482
 10
-52.57818602201171
 20
-32.45693358563577
 10
-52.66293537094885
 20
-32.34393445371958
 10
-52.76525470686078
 20
-32.246438251487
 10
-52.88514402974747
 20
-32.16410046938953
 10
-53.00503335263416
 20
-32.08176268729206
 10
-53.14042560520448
 20
-32.01837293036347
 10
-53.29080402313564
 20
-31.97358668905522
 10
-53.44135469584105
 20
-31.92880044774697
 10
-53.60120712635665
 20
-31.90640732709284
 10
-53.77070582423094
 20
-31.90640732709284
 10
-54.00118271219415
 20
-31.90640732709284
 10
-54.21047226292308
 20
-31.94430337743059
 10
-54.39857447641772
 20
-32.01940645900904
 10
-54.58667668991235
 20
-32.09485405013601
 10
-54.73722736261778
 20
-32.20165201017876
 10
-54.85005423975971
 20
-32.34048935823433
 10
-54.96305337167591
 20
-32.47932670628989
 10
-55.01938068285974
 20
-32.64985893280976
 10
-55.01938068285974
 20
-32.85208603779393
 10
-55.01938068285974
 20
-33.06843803426762
 10
-54.95719670935098
 20
-33.24586045175799
 10
-54.83248425278493
 20
-33.38469779981355
 10
-54.70794405099315
 20
-33.52353514786912
 10
-54.54912514912313
 20
-33.63860133707647
 10
-54.35619980194914
 20
-33.73024087698411
 10
-54.16344670954941
 20
-33.82222492644028
 10
-53.96587048347034
 20
-33.90559623718333
 10
-53.76364337848617
 20
-33.9810438283103
 10
-53.5848429228017
 20
-34.04202201839922
 10
-53.40724825053708
 20
-34.10920138036159
 10
-53.23085936169229
 20
-34.18189289510036
 10
-53.0544704728475
 20
-34.25492891938766
 10
-52.89461804233191
 20
-34.34553493064973
 10
-52.75112981537125
 20
-34.45371092888657
 10
-52.60764158841059
 20
-34.56188692712342
 10
-52.49360892784882
 20
-34.69831270833932
 10
-52.40885957891167
 20
-34.86298827253425
 10
-52.32428248474879
 20
-35.0276638367292
 10
-52.28190781028022
 20
-35.23436956584419
 10
-52.28190781028022
 20
-35.48379447897628
 10
-52.28190781028022
 20
-35.70014647544996
 10
-52.34426403856324
 20
-35.89996201359446
 10
-52.46880424035502
 20
-36.08358560295827
 10
-52.59351669692106
 20
-36.26686468277357
 10
-52.76869980234602
 20
-36.41500378863931
 10
-52.99452581140415
 20
-36.5280029205555
 10
-53.22035182046228
 20
-36.64065754292317
 10
-53.49079181605439
 20
-36.69956867572094
 10
-53.80584579818048
 20
-36.70439180940029
 97
        0
 97
        1
330
CA
 75
     2
 76
     1
 98
        1
 10
0.0
 20
0.0
450
        0
451
        0
460
0.0
461
0.0
452
        0
462
0.0
453
        0
470

  0
SPLINE
  5
CC
330
BA
100
AcDbEntity
  8
0
100
AcDbSpline
210
0.0
220
0.0
230
1.0
 70
     9
 71
     3
 72
    35
 73
    31
 74
     0
 42
0.0000000001
 43
0.0000000001
 40
0.0
 40
0.0
 40
0.0
 40
0.0
 40
1.0
 40
1.0
 40
1.0
 40
2.0
 40
2.0
 40
2.0
 40
3.0
 40
3.0
 40
3.0
 40
4.0
 40
4.0
 40
4.0
 40
5.0
 40
5.0
 40
5.0
 40
6.0
 40
6.0
 40
6.0
 40
7.0
 40
7.0
 40
7.0
 40
8.0
 40
8.0
 40
8.0
 40
9.0
 40
9.0
 40
9.0
 40
10.0
 40
10.0
 40
10.0
 40
10.0
 10
-50.92023381973522
 20
-36.48562824608692
 30
0.0
 10
-50.92488469864031
 20
-36.5280029205555
 30
0.0
 10
-50.94142115696951
 20
-36.56314289450505
 30
0.0
 10
-50.96949868517429
 20
-36.5913926774841
 30
0.0
 10
-50.99774846815334
 20
-36.61964246046315
 30
0.0
 10
-51.03082138481174
 20
-36.63376735195267
 30
0.0
 10
-51.06837292560096
 20
-36.63376735195267
 30
0.0
 10
-51.11539847897462
 20
-36.63376735195267
 30
0.0
 10
-51.15191649111827
 20
-36.61964246046315
 30
0.0
 10
-51.17775470725764
 20
-36.5913926774841
 30
0.0
 10
-51.20359292339702
 20
-36.56314289450505
 30
0.0
 10
-51.2165120314667
 20
-36.5280029205555
 30
0.0
 10
-51.2165120314667
 20
-36.48562824608692
 30
0.0
 10
-51.2165120314667
 20
-36.48562824608692
 30
0.0
 10
-51.2165120314667
 20
-31.84301757016425
 30
0.0
 10
-51.2165120314667
 20
-31.84301757016425
 30
0.0
 10
-51.2165120314667
 20
-31.80064289569568
 30
0.0
 10
-51.20238713997718
 20
-31.76550292174613
 30
0.0
 10
-51.17413735699813
 20
-31.73725313876708
 30
0.0
 10
-51.14588757401908
 20
-31.70900335578803
 30
0.0
 10
-51.11074760006953
 20
-31.69487846429851
 30
0.0
 10
-51.06837292560096
 20
-31.69487846429851
 30
0.0
 10
-51.02599825113239
 20
-31.69487846429851
 30
0.0
 10
-50.99068602240858
 20
-31.70900335578803
 30
0.0
 10
-50.96243623942953
 20
-31.73725313876708
 30
0.0
 10
-50.93435871122474
 20
-31.76550292174613
 30
0.0
 10
-50.92023381973522
 20
-31.80064289569568
 30
0.0
 10
-50.92023381973522
 20
-31.84301757016425
 30
0.0
 10
-50.92023381973522
 20
-31.84301757016425
 30
0.0
 10
-50.92023381973522
 20
-36.48562824608692
 30
0.0
 10
-50.92023381973522
 20
-36.48562824608692
 30
0.0
  0
HATCH
  5
CD
330
BA
100
AcDbEntity
  8
0
 62
    18
420
        0
440
 33554687
100
AcDbHatch
 10
0.0
 20
0.0
 30
0.0
210
0.0
220
0.0
230
1.0
  2
SOLID
 70
     1
 71
     1
 91
        1
 92
        1
 93
        1
 72
     4
 94
        3
 73
     0
 74
     0
 95
       35
 96
       31
 40
0.0
 40
0.0
 40
0.0
 40
0.0
 40
1.0
 40
1.0
 40
1.0
 40
2.0
 40
2.0
 40
2.0
 40
3.0
 40
3.0
 40
3.0
 40
4.0
 40
4.0
 40
4.0
 40
5.0
 40
5.0
 40
5.0
 40
6.0
 40
6.0
 40
6.0
 40
7.0
 40
7.0
 40
7.0
 40
8.0
 40
8.0
 40
8.0
 40
9.0
 40
9.0
 40
9.0
 40
10.0
 40
10.0
 40
10.0
 40
10.0
 10
-50.92023381973522
 20
-36.48562824608692
 10
-50.92488469864031
 20
-36.5280029205555
 10
-50.94142115696951
 20
-36.56314289450505
 10
-50.96949868517429
 20
-36.5913926774841
 10
-50.99774846815334
 20
-36.61964246046315
 10
-51.03082138481174
 20
-36.63376735195267
 10
-51.06837292560096
 20
-36.63376735195267
 10
-51.11539847897462
 20
-36.63376735195267
 10
-51.15191649111827
 20
-36.61964246046315
 10
-51.17775470725764
 20
-36.5913926774841
 10
-51.20359292339702
 20
-36.56314289450505
 10
-51.2165120314667
 20
-36.5280029205555
 10
-51.2165120314667
 20
-36.48562824608692
 10
-51.2165120314667
 20
-36.48562824608692
 10
-51.2165120314667
 20
-31.84301757016425
 10
-51.2165120314667
 20
-31.84301757016425
 10
-51.2165120314667
 20
-31.80064289569568
 10
-51.20238713997718
 20
-31.76550292174613
 10
-51.17413735699813
 20
-31.73725313876708
 10
-51.14588757401908
 20
-31.70900335578803
 10
-51.11074760006953
 20
-31.69487846429851
 10
-51.06837292560096
 20
-31.69487846429851
 10
-51.02599825113239
 20
-31.69487846429851
 10
-50.99068602240858
 20
-31.70900335578803
 10
-50.96243623942953
 20
-31.73725313876708
 10
-50.93435871122474
 20
-31.76550292174613
 10
-50.92023381973522
 20
-31.80064289569568
 10
-50.92023381973522
 20
-31.84301757016425
 10
-50.92023381973522
 20
-31.84301757016425
 10
-50.92023381973522
 20
-36.48562824608692
 10
-50.92023381973522
 20
-36.48562824608692
 97
        0
 97
        1
330
CC
 75
     2
 76
     1
 98
        1
 10
0.0
 20
0.0
450
        0
451
        0
460
0.0
461
0.0
452
        0
462
0.0
453
        0
470

  0
SPLINE
  5
CE
330
BA
100
AcDbEntity
  8
0
100
AcDbSpline
210
0.0
220
0.0
230
1.0
 70
     9
 71
     3
 72
    41
 73
    37
 74
     0
 42
0.0000000001
 43
0.0000000001
 40
0.0
 40
0.0
 40
0.0
 40
0.0
 40
1.0
 40
1.0
 40
1.0
 40
2.0
 40
2.0
 40
2.0
 40
3.0
 40
3.0
 40
3.0
 40
4.0
 40
4.0
 40
4.0
 40
5.0
 40
5.0
 40
5.0
 40
6.0
 40
6.0
 40
6.0
 40
7.0
 40
7.0
 40
7.0
 40
8.0
 40
8.0
 40
8.0
 40
9.0
 40
9.0
 40
9.0
 40
10.0
 40
10.0
 40
10.0
 40
11.0
 40
11.0
 40
11.0
 40
12.0
 40
12.0
 40
12.0
 40
12.0
 10
-47.60415716040799
 20
-36.35161403171071
 30
0.0
 10
-47.17145316746061
 20
-36.35161403171071
 30
0.0
 10
-46.82212048525627
 20
-36.25411782947814
 30
0.0
 10
-46.55633136856925
 20
-36.05878091546447
 30
0.0
 10
-46.29071450665649
 20
-35.86344400145081
 30
0.0
 10
-46.09537759264282
 20
-35.60023870637772
 30
0.0
 10
-45.97083739085104
 20
-35.26847601114816
 30
0.0
 10
-45.846124934285
 20
-34.93705782546713
 30
0.0
 10
-45.78376870600197
 20
-34.56877711809392
 30
0.0
 10
-45.78376870600197
 20
-34.16432290812559
 30
0.0
 10
-45.78376870600197
 20
-33.87734645420428
 30
0.0
 10
-45.81804740608021
 20
-33.60242783448134
 30
0.0
 10
-45.88608804191389
 20
-33.33887802985973
 30
0.0
 10
-45.95430093252184
 20
-33.07532822523812
 30
0.0
 10
-46.06144340211311
 20
-32.84140624178965
 30
0.0
 10
-46.20717094113918
 20
-32.63676756996581
 30
0.0
 10
-46.35289848016525
 20
-32.43212889814197
 30
0.0
 10
-46.54117294843415
 20
-32.27124293898081
 30
0.0
 10
-46.77164983639737
 20
-32.15342067338526
 30
0.0
 10
-47.00212672436058
 20
-32.03594291733824
 30
0.0
 10
-47.27962916569746
 20
-31.97703178454047
 30
0.0
 10
-47.60415716040799
 20
-31.97703178454047
 30
0.0
 10
-47.60415716040799
 20
-31.97703178454047
 30
0.0
 10
-49.25504691693971
 20
-31.97703178454047
 30
0.0
 10
-49.25504691693971
 20
-31.97703178454047
 30
0.0
 10
-49.25504691693971
 20
-31.97703178454047
 30
0.0
 10
-49.2128444972454
 20
-31.92053221858237
 30
0.0
 10
-49.2128444972454
 20
-31.92053221858237
 30
0.0
 10
-49.2128444972454
 20
-31.92053221858237
 30
0.0
 10
-49.2128444972454
 20
-36.41500378863931
 30
0.0
 10
-49.2128444972454
 20
-36.41500378863931
 30
0.0
 10
-49.2128444972454
 20
-36.41500378863931
 30
0.0
 10
-49.25504691693971
 20
-36.35161403171071
 30
0.0
 10
-49.25504691693971
 20
-36.35161403171071
 30
0.0
 10
-49.25504691693971
 20
-36.35161403171071
 30
0.0
 10
-47.60415716040799
 20
-36.35161403171071
 30
0.0
 10
-47.60415716040799
 20
-36.35161403171071
 30
0.0
  0
SPLINE
  5
CF
330
BA
100
AcDbEntity
  8
0
100
AcDbSpline
210
0.0
220
0.0
230
1.0
 70
     9
 71
     3
 72
    47
 73
    43
 74
     0
 42
0.0000000001
 43
0.0000000001
 40
0.0
 40
0.0
 40
0.0
 40
0.0
 40
1.0
 40
1.0
 40
1.0
 40
2.0
 40
2.0
 40
2.0
 40
3.0
 40
3.0
 40
3.0
 40
4.0
 40
4.0
 40
4.0
 40
5.0
 40
5.0
 40
5.0
 40
6.0
 40
6.0
 40
6.0
 40
7.0
 40
7.0
 40
7.0
 40
8.0
 40
8.0
 40
8.0
 40
9.0
 40
9.0
 40
9.0
 40
10.0
 40
10.0
 40
10.0
 40
11.0
 40
11.0
 40
11.0
 40
12.0
 40
12.0
 40
12.0
 40
13.0
 40
13.0
 40
13.0
 40
14.0
 40
14.0
 40
14.0
 40
14.0
 10
-47.53353270296037
 20
-31.69487846429851
 30
0.0
 10
-47.18075492527078
 20
-31.69487846429851
 30
0.0
 10
-46.87500270095486
 20
-31.76205782626088
 30
0.0
 10
-46.61627603001259
 20
-31.8960720406371
 30
0.0
 10
-46.35772161384459
 20
-32.03008625501332
 30
0.0
 10
-46.14481471285616
 20
-32.2133653348286
 30
0.0
 10
-45.9778998365958
 20
-32.44625378963149
 30
0.0
 10
-45.81098496033545
 20
-32.67914224443438
 30
0.0
 10
-45.68747828718924
 20
-32.94372557770157
 30
0.0
 10
-45.60737981715718
 20
-33.24000378943305
 30
0.0
 10
-45.52745360189939
 20
-33.53628200116455
 30
0.0
 10
-45.48749049427049
 20
-33.8446180470944
 30
0.0
 10
-45.48749049427049
 20
-34.16432290812559
 30
0.0
 10
-45.48749049427049
 20
-34.61597492624184
 30
0.0
 10
-45.55914848036368
 20
-35.02869736537478
 30
0.0
 10
-45.70263670732434
 20
-35.40249022552438
 30
0.0
 10
-45.846124934285
 20
-35.77662759522251
 30
0.0
 10
-46.06850584785788
 20
-36.07531737379368
 30
0.0
 10
-46.36943493849445
 20
-36.29855956123786
 30
0.0
 10
-46.67053628390529
 20
-36.52214625823058
 30
0.0
 10
-47.05845403554441
 20
-36.63376735195267
 30
0.0
 10
-47.53353270296037
 20
-36.63376735195267
 30
0.0
 10
-47.53353270296037
 20
-36.63376735195267
 30
0.0
 10
-49.3680460488559
 20
-36.63376735195267
 30
0.0
 10
-49.3680460488559
 20
-36.63376735195267
 30
0.0
 10
-49.40576984441939
 20
-36.63376735195267
 30
0.0
 10
-49.43849825152927
 20
-36.61964246046315
 30
0.0
 10
-49.46674803450831
 20
-36.5913926774841
 30
0.0
 10
-49.49499781748737
 20
-36.56314289450505
 30
0.0
 10
-49.50912270897688
 20
-36.53041448739518
 30
0.0
 10
-49.50912270897688
 20
-36.49251843705743
 30
0.0
 10
-49.50912270897688
 20
-36.49251843705743
 30
0.0
 10
-49.50912270897688
 20
-31.83612737919375
 30
0.0
 10
-49.50912270897688
 20
-31.83612737919375
 30
0.0
 10
-49.50912270897688
 20
-31.798231328856
 30
0.0
 10
-49.49499781748737
 20
-31.76550292174613
 30
0.0
 10
-49.46674803450831
 20
-31.73725313876708
 30
0.0
 10
-49.43849825152927
 20
-31.70900335578803
 30
0.0
 10
-49.40576984441939
 20
-31.69487846429851
 30
0.0
 10
-49.3680460488559
 20
-31.69487846429851
 30
0.0
 10
-49.3680460488559
 20
-31.69487846429851
 30
0.0
 10
-47.53353270296037
 20
-31.69487846429851
 30
0.0
 10
-47.53353270296037
 20
-31.69487846429851
 30
0.0
  0
HATCH
  5
D0
330
BA
100
AcDbEntity
  8
0
 62
    18
420
        0
440
 33554687
100
AcDbHatch
 10
0.0
 20
0.0
 30
0.0
210
0.0
220
0.0
230
1.0
  2
SOLID
 70
     1
 71
     1
 91
        2
 92
        1
 93
        1
 72
     4
 94
        3
 73
     0
 74
     0
 95
       41
 96
       37
 40
0.0
 40
0.0
 40
0.0
 40
0.0
 40
1.0
 40
1.0
 40
1.0
 40
2.0
 40
2.0
 40
2.0
 40
3.0
 40
3.0
 40
3.0
 40
4.0
 40
4.0
 40
4.0
 40
5.0
 40
5.0
 40
5.0
 40
6.0
 40
6.0
 40
6.0
 40
7.0
 40
7.0
 40
7.0
 40
8.0
 40
8.0
 40
8.0
 40
9.0
 40
9.0
 40
9.0
 40
10.0
 40
10.0
 40
10.0
 40
11.0
 40
11.0
 40
11.0
 40
12.0
 40
12.0
 40
12.0
 40
12.0
 10
-47.60415716040799
 20
-36.35161403171071
 10
-47.17145316746061
 20
-36.35161403171071
 10
-46.82212048525627
 20
-36.25411782947814
 10
-46.55633136856925
 20
-36.05878091546447
 10
-46.29071450665649
 20
-35.86344400145081
 10
-46.09537759264282
 20
-35.60023870637772
 10
-45.97083739085104
 20
-35.26847601114816
 10
-45.846124934285
 20
-34.93705782546713
 10
-45.78376870600197
 20
-34.56877711809392
 10
-45.78376870600197
 20
-34.16432290812559
 10
-45.78376870600197
 20
-33.87734645420428
 10
-45.81804740608021
 20
-33.60242783448134
 10
-45.88608804191389
 20
-33.33887802985973
 10
-45.95430093252184
 20
-33.07532822523812
 10
-46.06144340211311
 20
-32.84140624178965
 10
-46.20717094113918
 20
-32.63676756996581
 10
-46.35289848016525
 20
-32.43212889814197
 10
-46.54117294843415
 20
-32.27124293898081
 10
-46.77164983639737
 20
-32.15342067338526
 10
-47.00212672436058
 20
-32.03594291733824
 10
-47.27962916569746
 20
-31.97703178454047
 10
-47.60415716040799
 20
-31.97703178454047
 10
-47.60415716040799
 20
-31.97703178454047
 10
-49.25504691693971
 20
-31.97703178454047
 10
-49.25504691693971
 20
-31.97703178454047
 10
-49.25504691693971
 20
-31.97703178454047
 10
-49.2128444972454
 20
-31.92053221858237
 10
-49.2128444972454
 20
-31.92053221858237
 10
-49.2128444972454
 20
-31.92053221858237
 10
-49.2128444972454
 20
-36.41500378863931
 10
-49.2128444972454
 20
-36.41500378863931
 10
-49.2128444972454
 20
-36.41500378863931
 10
-49.25504691693971
 20
-36.35161403171071
 10
-49.25504691693971
 20
-36.35161403171071
 10
-49.25504691693971
 20
-36.35161403171071
 10
-47.60415716040799
 20
-36.35161403171071
 10
-47.60415716040799
 20
-36.35161403171071
 97
        0
 97
        1
330
CE
 92
        1
 93
        1
 72
     4
 94
        3
 73
     0
 74
     0
 95
       47
 96
       43
 40
0.0
 40
0.0
 40
0.0
 40
0.0
 40
1.0
 40
1.0
 40
1.0
 40
2.0
 40
2.0
 40
2.0
 40
3.0
 40
3.0
 40
3.0
 40
4.0
 40
4.0
 40
4.0
 40
5.0
 40
5.0
 40
5.0
 40
6.0
 40
6.0
 40
6.0
 40
7.0
 40
7.0
 40
7.0
 40
8.0
 40
8.0
 40
8.0
 40
9.0
 40
9.0
 40
9.0
 40
10.0
 40
10.0
 40
10.0
 40
11.0
 40
11.0
 40
11.0
 40
12.0
 40
12.0
 40
12.0
 40
13.0
 40
13.0
 40
13.0
 40
14.0
 40
14.0
 40
14.0
 40
14.0
 10
-47.53353270296037
 20
-31.69487846429851
 10
-47.18075492527078
 20
-31.69487846429851
 10
-46.87500270095486
 20
-31.76205782626088
 10
-46.61627603001259
 20
-31.8960720406371
 10
-46.35772161384459
 20
-32.03008625501332
 10
-46.14481471285616
 20
-32.2133653348286
 10
-45.9778998365958
 20
-32.44625378963149
 10
-45.81098496033545
 20
-32.67914224443438
 10
-45.68747828718924
 20
-32.94372557770157
 10
-45.60737981715718
 20
-33.24000378943305
 10
-45.52745360189939
 20
-33.53628200116455
 10
-45.48749049427049
 20
-33.8446180470944
 10
-45.48749049427049
 20
-34.16432290812559
 10
-45.48749049427049
 20
-34.61597492624184
 10
-45.55914848036368
 20
-35.02869736537478
 10
-45.70263670732434
 20
-35.40249022552438
 10
-45.846124934285
 20
-35.77662759522251
 10
-46.06850584785788
 20
-36.07531737379368
 10
-46.36943493849445
 20
-36.29855956123786
 10
-46.67053628390529
 20
-36.52214625823058
 10
-47.05845403554441
 20
-36.63376735195267
 10
-47.53353270296037
 20
-36.63376735195267
 10
-47.53353270296037
 20
-36.63376735195267
 10
-49.3680460488559
 20
-36.63376735195267
 10
-49.3680460488559
 20
-36.63376735195267
 10
-49.40576984441939
 20
-36.63376735195267
 10
-49.43849825152927
 20
-36.61964246046315
 10
-49.46674803450831
 20
-36.5913926774841
 10
-49.49499781748737
 20
-36.56314289450505
 10
-49.50912270897688
 20
-36.53041448739518
 10
-49.50912270897688
 20
-36.49251843705743
 10
-49.50912270897688
 20
-36.49251843705743
 10
-49.50912270897688
 20
-31.83612737919375
 10
-49.50912270897688
 20
-31.83612737919375
 10
-49.50912270897688
 20
-31.798231328856
 10
-49.49499781748737
 20
-31.76550292174613
 10
-49.46674803450831
 20
-31.73725313876708
 10
-49.43849825152927
 20
-31.70900335578803
 10
-49.40576984441939
 20
-31.69487846429851
 10
-49.3680460488559
 20
-31.69487846429851
 10
-49.3680460488559
 20
-31.69487846429851
 10
-47.53353270296037
 20
-31.69487846429851
 10
-47.53353270296037
 20
-31.69487846429851
 97
        0
 97
        1
330
CF
 75
     2
 76
     1
 98
        1
 10
0.0
 20
0.0
450
        0
451
        0
460
0.0
461
0.0
452
        0
462
0.0
453
        0
470

  0
SPLINE
  5
D1
330
BA
100
AcDbEntity
  8
0
100
AcDbSpline
210
0.0
220
0.0
230
1.0
 70
     9
 71
     3
 72
    92
 73
    88
 74
     0
 42
0.0000000001
 43
0.0000000001
 40
0.0
 40
0.0
 40
0.0
 40
0.0
 40
1.0
 40
1.0
 40
1.0
 40
2.0
 40
2.0
 40
2.0
 40
3.0
 40
3.0
 40
3.0
 40
4.0
 40
4.0
 40
4.0
 40
5.0
 40
5.0
 40
5.0
 40
6.0
 40
6.0
 40
6.0
 40
7.0
 40
7.0
 40
7.0
 40
8.0
 40
8.0
 40
8.0
 40
9.0
 40
9.0
 40
9.0
 40
10.0
 40
10.0
 40
10.0
 40
11.0
 40
11.0
 40
11.0
 40
12.0
 40
12.0
 40
12.0
 40
13.0
 40
13.0
 40
13.0
 40
14.0
 40
14.0
 40
14.0
 40
15.0
 40
15.0
 40
15.0
 40
16.0
 40
16.0
 40
16.0
 40
17.0
 40
17.0
 40
17.0
 40
18.0
 40
18.0
 40
18.0
 40
19.0
 40
19.0
 40
19.0
 40
20.0
 40
20.0
 40
20.0
 40
21.0
 40
21.0
 40
21.0
 40
22.0
 40
22.0
 40
22.0
 40
23.0
 40
23.0
 40
23.0
 40
24.0
 40
24.0
 40
24.0
 40
25.0
 40
25.0
 40
25.0
 40
26.0
 40
26.0
 40
26.0
 40
27.0
 40
27.0
 40
27.0
 40
28.0
 40
28.0
 40
28.0
 40
29.0
 40
29.0
 40
29.0
 40
29.0
 10
-44.28808050108075
 20
-31.69487846429851
 30
0.0
 10
-44.28808050108075
 20
-31.69487846429851
 30
0.0
 10
-41.62812227691936
 20
-31.69487846429851
 30
0.0
 10
-41.62812227691936
 20
-31.69487846429851
 30
0.0
 10
-41.59057073613014
 20
-31.69487846429851
 30
0.0
 10
-41.55749781947174
 20
-31.70900335578803
 30
0.0
 10
-41.52924803649269
 20
-31.73725313876708
 30
0.0
 10
-41.5011705082879
 20
-31.76550292174613
 30
0.0
 10
-41.48704561679838
 20
-31.798231328856
 30
0.0
 10
-41.48704561679838
 20
-31.83612737919375
 30
0.0
 10
-41.48704561679838
 20
-31.8781575441138
 30
0.0
 10
-41.5011705082879
 20
-31.91260849896629
 30
0.0
 10
-41.52924803649269
 20
-31.93844671510567
 30
0.0
 10
-41.55749781947174
 20
-31.96428493124504
 30
0.0
 10
-41.59057073613014
 20
-31.97703178454047
 30
0.0
 10
-41.62812227691936
 20
-31.97703178454047
 30
0.0
 10
-41.62812227691936
 20
-31.97703178454047
 30
0.0
 10
-44.20333115214361
 20
-31.97703178454047
 30
0.0
 10
-44.20333115214361
 20
-31.97703178454047
 30
0.0
 10
-44.20333115214361
 20
-31.97703178454047
 30
0.0
 10
-44.13287894947025
 20
-31.85714246165377
 30
0.0
 10
-44.13287894947025
 20
-31.85714246165377
 30
0.0
 10
-44.13287894947025
 20
-31.85714246165377
 30
0.0
 10
-44.13287894947025
 20
-34.04443358523889
 30
0.0
 10
-44.13287894947025
 20
-34.04443358523889
 30
0.0
 10
-44.13287894947025
 20
-34.04443358523889
 30
0.0
 10
-44.21745604363313
 20
-33.94555934481223
 30
0.0
 10
-44.21745604363313
 20
-33.94555934481223
 30
0.0
 10
-44.21745604363313
 20
-33.94555934481223
 30
0.0
 10
-41.94558782588513
 20
-33.94555934481223
 30
0.0
 10
-41.94558782588513
 20
-33.94555934481223
 30
0.0
 10
-41.9080362850959
 20
-33.94555934481223
 30
0.0
 10
-41.87496336843751
 20
-33.95968423630175
 30
0.0
 10
-41.84688584023272
 20
-33.9879340192808
 30
0.0
 10
-41.81863605725367
 20
-34.01618380225985
 30
0.0
 10
-41.80451116576415
 20
-34.04925671891824
 30
0.0
 10
-41.80451116576415
 20
-34.08680825970747
 30
0.0
 10
-41.80451116576415
 20
-34.12918293417604
 30
0.0
 10
-41.81863605725367
 20
-34.16328937948001
 30
0.0
 10
-41.84688584023272
 20
-34.18912759561939
 30
0.0
 10
-41.87496336843751
 20
-34.21496581175876
 30
0.0
 10
-41.9080362850959
 20
-34.22771266505419
 30
0.0
 10
-41.94558782588513
 20
-34.22771266505419
 30
0.0
 10
-41.94558782588513
 20
-34.22771266505419
 30
0.0
 10
-44.20333115214361
 20
-34.22771266505419
 30
0.0
 10
-44.20333115214361
 20
-34.22771266505419
 30
0.0
 10
-44.20333115214361
 20
-34.22771266505419
 30
0.0
 10
-44.13287894947025
 20
-34.15019801663606
 30
0.0
 10
-44.13287894947025
 20
-34.15019801663606
 30
0.0
 10
-44.13287894947025
 20
-34.15019801663606
 30
0.0
 10
-44.13287894947025
 20
-36.38675400566026
 30
0.0
 10
-44.13287894947025
 20
-36.38675400566026
 30
0.0
 10
-44.13287894947025
 20
-36.38675400566026
 30
0.0
 10
-44.1611287324493
 20
-36.35161403171071
 30
0.0
 10
-44.1611287324493
 20
-36.35161403171071
 30
0.0
 10
-44.1611287324493
 20
-36.35161403171071
 30
0.0
 10
-41.62812227691936
 20
-36.35161403171071
 30
0.0
 10
-41.62812227691936
 20
-36.35161403171071
 30
0.0
 10
-41.59057073613014
 20
-36.35161403171071
 30
0.0
 10
-41.55749781947174
 20
-36.36573892320023
 30
0.0
 10
-41.52924803649269
 20
-36.39398870617928
 30
0.0
 10
-41.5011705082879
 20
-36.42223848915833
 30
0.0
 10
-41.48704561679838
 20
-36.45496689626821
 30
0.0
 10
-41.48704561679838
 20
-36.49251843705743
 30
0.0
 10
-41.48704561679838
 20
-36.53489311152601
 30
0.0
 10
-41.5011705082879
 20
-36.56899955682997
 30
0.0
 10
-41.52924803649269
 20
-36.59483777296935
 30
0.0
 10
-41.55749781947174
 20
-36.62102049865725
 30
0.0
 10
-41.59057073613014
 20
-36.63376735195267
 30
0.0
 10
-41.62812227691936
 20
-36.63376735195267
 30
0.0
 10
-41.62812227691936
 20
-36.63376735195267
 30
0.0
 10
-44.28808050108075
 20
-36.63376735195267
 30
0.0
 10
-44.28808050108075
 20
-36.63376735195267
 30
0.0
 10
-44.32580429664424
 20
-36.63376735195267
 30
0.0
 10
-44.35853270375412
 20
-36.61964246046315
 30
0.0
 10
-44.38678248673316
 20
-36.5913926774841
 30
0.0
 10
-44.41503226971221
 20
-36.56314289450505
 30
0.0
 10
-44.42915716120174
 20
-36.53041448739518
 30
0.0
 10
-44.42915716120174
 20
-36.49251843705743
 30
0.0
 10
-44.42915716120174
 20
-36.49251843705743
 30
0.0
 10
-44.42915716120174
 20
-31.83612737919375
 30
0.0
 10
-44.42915716120174
 20
-31.83612737919375
 30
0.0
 10
-44.42915716120174
 20
-31.798231328856
 30
0.0
 10
-44.41503226971221
 20
-31.76550292174613
 30
0.0
 10
-44.38678248673316
 20
-31.73725313876708
 30
0.0
 10
-44.35853270375412
 20
-31.70900335578803
 30
0.0
 10
-44.32580429664424
 20
-31.69487846429851
 30
0.0
 10
-44.28808050108075
 20
-31.69487846429851
 30
0.0
  0
HATCH
  5
D2
330
BA
100
AcDbEntity
  8
0
 62
    18
420
        0
440
 33554687
100
AcDbHatch
 10
0.0
 20
0.0
 30
0.0
210
0.0
220
0.0
230
1.0
  2
SOLID
 70
     1
 71
     1
 91
        1
 92
        1
 93
        1
 72
     4
 94
        3
 73
     0
 74
     0
 95
       92
 96
       88
 40
0.0
 40
0.0
 40
0.0
 40
0.0
 40
1.0
 40
1.0
 40
1.0
 40
2.0
 40
2.0
 40
2.0
 40
3.0
 40
3.0
 40
3.0
 40
4.0
 40
4.0
 40
4.0
 40
5.0
 40
5.0
 40
5.0
 40
6.0
 40
6.0
 40
6.0
 40
7.0
 40
7.0
 40
7.0
 40
8.0
 40
8.0
 40
8.0
 40
9.0
 40
9.0
 40
9.0
 40
10.0
 40
10.0
 40
10.0
 40
11.0
 40
11.0
 40
11.0
 40
12.0
 40
12.0
 40
12.0
 40
13.0
 40
13.0
 40
13.0
 40
14.0
 40
14.0
 40
14.0
 40
15.0
 40
15.0
 40
15.0
 40
16.0
 40
16.0
 40
16.0
 40
17.0
 40
17.0
 40
17.0
 40
18.0
 40
18.0
 40
18.0
 40
19.0
 40
19.0
 40
19.0
 40
20.0
 40
20.0
 40
20.0
 40
21.0
 40
21.0
 40
21.0
 40
22.0
 40
22.0
 40
22.0
 40
23.0
 40
23.0
 40
23.0
 40
24.0
 40
24.0
 40
24.0
 40
25.0
 40
25.0
 40
25.0
 40
26.0
 40
26.0
 40
26.0
 40
27.0
 40
27.0
 40
27.0
 40
28.0
 40
28.0
 40
28.0
 40
29.0
 40
29.0
 40
29.0
 40
29.0
 10
-44.28808050108075
 20
-31.69487846429851
 10
-44.28808050108075
 20
-31.69487846429851
 10
-41.62812227691936
 20
-31.69487846429851
 10
-41.62812227691936
 20
-31.69487846429851
 10
-41.59057073613014
 20
-31.69487846429851
 10
-41.55749781947174
 20
-31.70900335578803
 10
-41.52924803649269
 20
-31.73725313876708
 10
-41.5011705082879
 20
-31.76550292174613
 10
-41.48704561679838
 20
-31.798231328856
 10
-41.48704561679838
 20
-31.83612737919375
 10
-41.48704561679838
 20
-31.8781575441138
 10
-41.5011705082879
 20
-31.91260849896629
 10
-41.52924803649269
 20
-31.93844671510567
 10
-41.55749781947174
 20
-31.96428493124504
 10
-41.59057073613014
 20
-31.97703178454047
 10
-41.62812227691936
 20
-31.97703178454047
 10
-41.62812227691936
 20
-31.97703178454047
 10
-44.20333115214361
 20
-31.97703178454047
 10
-44.20333115214361
 20
-31.97703178454047
 10
-44.20333115214361
 20
-31.97703178454047
 10
-44.13287894947025
 20
-31.85714246165377
 10
-44.13287894947025
 20
-31.85714246165377
 10
-44.13287894947025
 20
-31.85714246165377
 10
-44.13287894947025
 20
-34.04443358523889
 10
-44.13287894947025
 20
-34.04443358523889
 10
-44.13287894947025
 20
-34.04443358523889
 10
-44.21745604363313
 20
-33.94555934481223
 10
-44.21745604363313
 20
-33.94555934481223
 10
-44.21745604363313
 20
-33.94555934481223
 10
-41.94558782588513
 20
-33.94555934481223
 10
-41.94558782588513
 20
-33.94555934481223
 10
-41.9080362850959
 20
-33.94555934481223
 10
-41.87496336843751
 20
-33.95968423630175
 10
-41.84688584023272
 20
-33.9879340192808
 10
-41.81863605725367
 20
-34.01618380225985
 10
-41.80451116576415
 20
-34.04925671891824
 10
-41.80451116576415
 20
-34.08680825970747
 10
-41.80451116576415
 20
-34.12918293417604
 10
-41.81863605725367
 20
-34.16328937948001
 10
-41.84688584023272
 20
-34.18912759561939
 10
-41.87496336843751
 20
-34.21496581175876
 10
-41.9080362850959
 20
-34.22771266505419
 10
-41.94558782588513
 20
-34.22771266505419
 10
-41.94558782588513
 20
-34.22771266505419
 10
-44.20333115214361
 20
-34.22771266505419
 10
-44.20333115214361
 20
-34.22771266505419
 10
-44.20333115214361
 20
-34.22771266505419
 10
-44.13287894947025
 20
-34.15019801663606
 10
-44.13287894947025
 20
-34.15019801663606
 10
-44.13287894947025
 20
-34.15019801663606
 10
-44.13287894947025
 20
-36.38675400566026
 10
-44.13287894947025
 20
-36.38675400566026
 10
-44.13287894947025
 20
-36.38675400566026
 10
-44.1611287324493
 20
-36.35161403171071
 10
-44.1611287324493
 20
-36.35161403171071
 10
-44.1611287324493
 20
-36.35161403171071
 10
-41.62812227691936
 20
-36.35161403171071
 10
-41.62812227691936
 20
-36.35161403171071
 10
-41.59057073613014
 20
-36.35161403171071
 10
-41.55749781947174
 20
-36.36573892320023
 10
-41.52924803649269
 20
-36.39398870617928
 10
-41.5011705082879
 20
-36.42223848915833
 10
-41.48704561679838
 20
-36.45496689626821
 10
-41.48704561679838
 20
-36.49251843705743
 10
-41.48704561679838
 20
-36.53489311152601
 10
-41.5011705082879
 20
-36.56899955682997
 10
-41.52924803649269
 20
-36.59483777296935
 10
-41.55749781947174
 20
-36.62102049865725
 10
-41.59057073613014
 20
-36.63376735195267
 10
-41.62812227691936
 20
-36.63376735195267
 10
-41.62812227691936
 20
-36.63376735195267
 10
-44.28808050108075
 20
-36.63376735195267
 10
-44.28808050108075
 20
-36.63376735195267
 10
-44.32580429664424
 20
-36.63376735195267
 10
-44.35853270375412
 20
-36.61964246046315
 10
-44.38678248673316
 20
-36.5913926774841
 10
-44.41503226971221
 20
-36.56314289450505
 10
-44.42915716120174
 20
-36.53041448739518
 10
-44.42915716120174
 20
-36.49251843705743
 10
-44.42915716120174
 20
-36.49251843705743
 10
-44.42915716120174
 20
-31.83612737919375
 10
-44.42915716120174
 20
-31.83612737919375
 10
-44.42915716120174
 20
-31.798231328856
 10
-44.41503226971221
 20
-31.76550292174613
 10
-44.38678248673316
 20
-31.73725313876708
 10
-44.35853270375412
 20
-31.70900335578803
 10
-44.32580429664424
 20
-31.69487846429851
 10
-44.28808050108075
 20
-31.69487846429851
 97
        0
 97
        1
330
D1
 75
     2
 76
     1
 98
        1
 10
0.0
 20
0.0
450
        0
451
        0
460
0.0
461
0.0
452
        0
462
0.0
453
        0
470

  0
SPLINE
  5
D3
330
BA
100
AcDbEntity
  8
0
100
AcDbSpline
210
0.0
220
0.0
230
1.0
 70
    11
 71
     3
 72
    41
 73
    37
 74
     0
 42
0.0000000001
 43
0.0000000001
 40
0.0
 40
0.0
 40
0.0
 40
0.0
 40
1.0
 40
1.0
 40
1.0
 40
2.0
 40
2.0
 40
2.0
 40
3.0
 40
3.0
 40
3.0
 40
4.0
 40
4.0
 40
4.0
 40
5.0
 40
5.0
 40
5.0
 40
6.0
 40
6.0
 40
6.0
 40
7.0
 40
7.0
 40
7.0
 40
8.0
 40
8.0
 40
8.0
 40
9.0
 40
9.0
 40
9.0
 40
10.0
 40
10.0
 40
10.0
 40
11.0
 40
11.0
 40
11.0
 40
12.0
 40
12.0
 40
12.0
 40
12.0
 10
-34.45973984598576
 20
-34.16432290812559
 30
0.0
 10
-34.45973984598576
 20
-33.71267089000934
 30
0.0
 10
-34.54793429040816
 20
-33.31751843785118
 30
0.0
 10
-34.72432317925295
 20
-32.97886555165112
 30
0.0
 10
-34.90071206809774
 20
-32.64021266545106
 30
0.0
 10
-35.14307453548506
 20
-32.37700737037798
 30
0.0
 10
-35.4510660718664
 20
-32.18890515688333
 30
0.0
 10
-35.759229863022
 20
-32.00080294338869
 30
0.0
 10
-36.11545273619684
 20
-31.90640732709284
 30
0.0
 10
-36.51990694616517
 20
-31.90640732709284
 30
0.0
 10
-36.91988253200267
 20
-31.90640732709284
 30
0.0
 10
-37.27489962175767
 20
-32.00080294338869
 30
0.0
 10
-37.58530272497868
 20
-32.18890515688333
 30
0.0
 10
-37.89587808297395
 20
-32.37700737037798
 30
0.0
 10
-38.13927407900685
 20
-32.64021266545106
 30
0.0
 10
-38.31566296785164
 20
-32.97886555165112
 30
0.0
 10
-38.49205185669644
 20
-33.31751843785118
 30
0.0
 10
-38.58024630111883
 20
-33.71267089000934
 30
0.0
 10
-38.58024630111883
 20
-34.16432290812559
 30
0.0
 10
-38.58024630111883
 20
-34.61597492624184
 30
0.0
 10
-38.49205185669644
 20
-35.0111273784
 30
0.0
 10
-38.31566296785164
 20
-35.34978026460006
 30
0.0
 10
-38.13927407900685
 20
-35.68843315080012
 30
0.0
 10
-37.89587808297395
 20
-35.9516384458732
 30
0.0
 10
-37.58530272497868
 20
-36.13974065936785
 30
0.0
 10
-37.27489962175767
 20
-36.32818738241101
 30
0.0
 10
-36.91988253200267
 20
-36.42223848915833
 30
0.0
 10
-36.51990694616517
 20
-36.42223848915833
 30
0.0
 10
-36.11545273619684
 20
-36.42223848915833
 30
0.0
 10
-35.759229863022
 20
-36.32818738241101
 30
0.0
 10
-35.4510660718664
 20
-36.13974065936785
 30
0.0
 10
-35.14307453548506
 20
-35.9516384458732
 30
0.0
 10
-34.90071206809774
 20
-35.68843315080012
 30
0.0
 10
-34.72432317925295
 20
-35.34978026460006
 30
0.0
 10
-34.54793429040816
 20
-35.0111273784
 30
0.0
 10
-34.45973984598576
 20
-34.61597492624184
 30
0.0
 10
-34.45973984598576
 20
-34.16432290812559
 30
0.0
  0
SPLINE
  5
D4
330
BA
100
AcDbEntity
  8
0
100
AcDbSpline
210
0.0
220
0.0
230
1.0
 70
    11
 71
     3
 72
    53
 73
    49
 74
     0
 42
0.0000000001
 43
0.0000000001
 40
0.0
 40
0.0
 40
0.0
 40
0.0
 40
1.0
 40
1.0
 40
1.0
 40
2.0
 40
2.0
 40
2.0
 40
3.0
 40
3.0
 40
3.0
 40
4.0
 40
4.0
 40
4.0
 40
5.0
 40
5.0
 40
5.0
 40
6.0
 40
6.0
 40
6.0
 40
7.0
 40
7.0
 40
7.0
 40
8.0
 40
8.0
 40
8.0
 40
9.0
 40
9.0
 40
9.0
 40
10.0
 40
10.0
 40
10.0
 40
11.0
 40
11.0
 40
11.0
 40
12.0
 40
12.0
 40
12.0
 40
13.0
 40
13.0
 40
13.0
 40
14.0
 40
14.0
 40
14.0
 40
15.0
 40
15.0
 40
15.0
 40
16.0
 40
16.0
 40
16.0
 40
16.0
 10
-34.16346163425428
 20
-34.16432290812559
 30
0.0
 10
-34.16346163425428
 20
-34.54052733511487
 30
0.0
 10
-34.22099472885795
 20
-34.88400335499428
 30
0.0
 10
-34.33623317283956
 20
-35.19440645821529
 30
0.0
 10
-34.45164387159542
 20
-35.5048095614363
 30
0.0
 10
-34.61494139759627
 20
-35.77283799018874
 30
0.0
 10
-34.82664251516487
 20
-35.99883625402113
 30
0.0
 10
-35.03834363273347
 20
-36.22449000830499
 30
0.0
 10
-35.2875962910913
 20
-36.3984673303101
 30
0.0
 10
-35.57457274501261
 20
-36.52076822003647
 30
0.0
 10
-35.86154919893392
 20
-36.64306910976285
 30
0.0
 10
-36.17660318106002
 20
-36.70439180940029
 30
0.0
 10
-36.51990694616517
 20
-36.70439180940029
 30
0.0
 10
-36.86338296604457
 20
-36.70439180940029
 30
0.0
 10
-37.17860920294493
 20
-36.64306910976285
 30
0.0
 10
-37.46541340209198
 20
-36.52076822003647
 30
0.0
 10
-37.7523898560133
 20
-36.3984673303101
 30
0.0
 10
-38.00164251437112
 20
-36.22449000830499
 30
0.0
 10
-38.21334363193972
 20
-35.99883625402113
 30
0.0
 10
-38.42504474950832
 20
-35.77283799018874
 30
0.0
 10
-38.58851453028343
 20
-35.5048095614363
 30
0.0
 10
-38.70358071949077
 20
-35.19440645821529
 30
0.0
 10
-38.81899141824664
 20
-34.88400335499428
 30
0.0
 10
-38.87652451285032
 20
-34.54052733511487
 30
0.0
 10
-38.87652451285032
 20
-34.16432290812559
 30
0.0
 10
-38.87652451285032
 20
-33.78811848113631
 30
0.0
 10
-38.81899141824664
 20
-33.4446424612569
 30
0.0
 10
-38.70358071949077
 20
-33.13423935803589
 30
0.0
 10
-38.58851453028343
 20
-32.82383625481488
 30
0.0
 10
-38.42504474950832
 20
-32.55580782606244
 30
0.0
 10
-38.21334363193972
 20
-32.32980956223005
 30
0.0
 10
-38.00164251437112
 20
-32.10415580794619
 30
0.0
 10
-37.7523898560133
 20
-31.93017848594107
 30
0.0
 10
-37.46541340209198
 20
-31.8078775962147
 30
0.0
 10
-37.17860920294493
 20
-31.68557670648833
 30
0.0
 10
-36.86338296604457
 20
-31.62425400685088
 30
0.0
 10
-36.51990694616517
 20
-31.62425400685088
 30
0.0
 10
-36.17660318106002
 20
-31.62425400685088
 30
0.0
 10
-35.86154919893392
 20
-31.68557670648833
 30
0.0
 10
-35.57457274501261
 20
-31.8078775962147
 30
0.0
 10
-35.2875962910913
 20
-31.93017848594107
 30
0.0
 10
-35.03834363273347
 20
-32.10415580794619
 30
0.0
 10
-34.82664251516487
 20
-32.32980956223005
 30
0.0
 10
-34.61494139759627
 20
-32.55580782606244
 30
0.0
 10
-34.45164387159542
 20
-32.82383625481488
 30
0.0
 10
-34.33623317283956
 20
-33.13423935803589
 30
0.0
 10
-34.22099472885795
 20
-33.4446424612569
 30
0.0
 10
-34.16346163425428
 20
-33.78811848113631
 30
0.0
 10
-34.16346163425428
 20
-34.16432290812559
 30
0.0
  0
HATCH
  5
D5
330
BA
100
AcDbEntity
  8
0
 62
    18
420
        0
440
 33554687
100
AcDbHatch
 10
0.0
 20
0.0
 30
0.0
210
0.0
220
0.0
230
1.0
  2
SOLID
 70
     1
 71
     1
 91
        2
 92
        1
 93
        1
 72
     4
 94
        3
 73
     0
 74
     0
 95
       41
 96
       37
 40
0.0
 40
0.0
 40
0.0
 40
0.0
 40
1.0
 40
1.0
 40
1.0
 40
2.0
 40
2.0
 40
2.0
 40
3.0
 40
3.0
 40
3.0
 40
4.0
 40
4.0
 40
4.0
 40
5.0
 40
5.0
 40
5.0
 40
6.0
 40
6.0
 40
6.0
 40
7.0
 40
7.0
 40
7.0
 40
8.0
 40
8.0
 40
8.0
 40
9.0
 40
9.0
 40
9.0
 40
10.0
 40
10.0
 40
10.0
 40
11.0
 40
11.0
 40
11.0
 40
12.0
 40
12.0
 40
12.0
 40
12.0
 10
-34.45973984598576
 20
-34.16432290812559
 10
-34.45973984598576
 20
-33.71267089000934
 10
-34.54793429040816
 20
-33.31751843785118
 10
-34.72432317925295
 20
-32.97886555165112
 10
-34.90071206809774
 20
-32.64021266545106
 10
-35.14307453548506
 20
-32.37700737037798
 10
-35.4510660718664
 20
-32.18890515688333
 10
-35.759229863022
 20
-32.00080294338869
 10
-36.11545273619684
 20
-31.90640732709284
 10
-36.51990694616517
 20
-31.90640732709284
 10
-36.91988253200267
 20
-31.90640732709284
 10
-37.27489962175767
 20
-32.00080294338869
 10
-37.58530272497868
 20
-32.18890515688333
 10
-37.89587808297395
 20
-32.37700737037798
 10
-38.13927407900685
 20
-32.64021266545106
 10
-38.31566296785164
 20
-32.97886555165112
 10
-38.49205185669644
 20
-33.31751843785118
 10
-38.58024630111883
 20
-33.71267089000934
 10
-38.58024630111883
 20
-34.16432290812559
 10
-38.58024630111883
 20
-34.61597492624184
 10
-38.49205185669644
 20
-35.0111273784
 10
-38.31566296785164
 20
-35.34978026460006
 10
-38.13927407900685
 20
-35.68843315080012
 10
-37.89587808297395
 20
-35.9516384458732
 10
-37.58530272497868
 20
-36.13974065936785
 10
-37.27489962175767
 20
-36.32818738241101
 10
-36.91988253200267
 20
-36.42223848915833
 10
-36.51990694616517
 20
-36.42223848915833
 10
-36.11545273619684
 20
-36.42223848915833
 10
-35.759229863022
 20
-36.32818738241101
 10
-35.4510660718664
 20
-36.13974065936785
 10
-35.14307453548506
 20
-35.9516384458732
 10
-34.90071206809774
 20
-35.68843315080012
 10
-34.72432317925295
 20
-35.34978026460006
 10
-34.54793429040816
 20
-35.0111273784
 10
-34.45973984598576
 20
-34.61597492624184
 10
-34.45973984598576
 20
-34.16432290812559
 97
        0
 97
        1
330
D3
 92
        1
 93
        1
 72
     4
 94
        3
 73
     0
 74
     0
 95
       53
 96
       49
 40
0.0
 40
0.0
 40
0.0
 40
0.0
 40
1.0
 40
1.0
 40
1.0
 40
2.0
 40
2.0
 40
2.0
 40
3.0
 40
3.0
 40
3.0
 40
4.0
 40
4.0
 40
4.0
 40
5.0
 40
5.0
 40
5.0
 40
6.0
 40
6.0
 40
6.0
 40
7.0
 40
7.0
 40
7.0
 40
8.0
 40
8.0
 40
8.0
 40
9.0
 40
9.0
 40
9.0
 40
10.0
 40
10.0
 40
10.0
 40
11.0
 40
11.0
 40
11.0
 40
12.0
 40
12.0
 40
12.0
 40
13.0
 40
13.0
 40
13.0
 40
14.0
 40
14.0
 40
14.0
 40
15.0
 40
15.0
 40
15.0
 40
16.0
 40
16.0
 40
16.0
 40
16.0
 10
-34.16346163425428
 20
-34.16432290812559
 10
-34.16346163425428
 20
-34.54052733511487
 10
-34.22099472885795
 20
-34.88400335499428
 10
-34.33623317283956
 20
-35.19440645821529
 10
-34.45164387159542
 20
-35.5048095614363
 10
-34.61494139759627
 20
-35.77283799018874
 10
-34.82664251516487
 20
-35.99883625402113
 10
-35.03834363273347
 20
-36.22449000830499
 10
-35.2875962910913
 20
-36.3984673303101
 10
-35.57457274501261
 20
-36.52076822003647
 10
-35.86154919893392
 20
-36.64306910976285
 10
-36.17660318106002
 20
-36.70439180940029
 10
-36.51990694616517
 20
-36.70439180940029
 10
-36.86338296604457
 20
-36.70439180940029
 10
-37.17860920294493
 20
-36.64306910976285
 10
-37.46541340209198
 20
-36.52076822003647
 10
-37.7523898560133
 20
-36.3984673303101
 10
-38.00164251437112
 20
-36.22449000830499
 10
-38.21334363193972
 20
-35.99883625402113
 10
-38.42504474950832
 20
-35.77283799018874
 10
-38.58851453028343
 20
-35.5048095614363
 10
-38.70358071949077
 20
-35.19440645821529
 10
-38.81899141824664
 20
-34.88400335499428
 10
-38.87652451285032
 20
-34.54052733511487
 10
-38.87652451285032
 20
-34.16432290812559
 10
-38.87652451285032
 20
-33.78811848113631
 10
-38.81899141824664
 20
-33.4446424612569
 10
-38.70358071949077
 20
-33.13423935803589
 10
-38.58851453028343
 20
-32.82383625481488
 10
-38.42504474950832
 20
-32.55580782606244
 10
-38.21334363193972
 20
-32.32980956223005
 10
-38.00164251437112
 20
-32.10415580794619
 10
-37.7523898560133
 20
-31.93017848594107
 10
-37.46541340209198
 20
-31.8078775962147
 10
-37.17860920294493
 20
-31.68557670648833
 10
-36.86338296604457
 20
-31.62425400685088
 10
-36.51990694616517
 20
-31.62425400685088
 10
-36.17660318106002
 20
-31.62425400685088
 10
-35.86154919893392
 20
-31.68557670648833
 10
-35.57457274501261
 20
-31.8078775962147
 10
-35.2875962910913
 20
-31.93017848594107
 10
-35.03834363273347
 20
-32.10415580794619
 10
-34.82664251516487
 20
-32.32980956223005
 10
-34.61494139759627
 20
-32.55580782606244
 10
-34.45164387159542
 20
-32.82383625481488
 10
-34.33623317283956
 20
-33.13423935803589
 10
-34.22099472885795
 20
-33.4446424612569
 10
-34.16346163425428
 20
-33.78811848113631
 10
-34.16346163425428
 20
-34.16432290812559
 97
        0
 97
        1
330
D4
 75
     2
 76
     1
 98
        1
 10
0.0
 20
0.0
450
        0
451
        0
460
0.0
461
0.0
452
        0
462
0.0
453
        0
470

  0
SPLINE
  5
D6
330
BA
100
AcDbEntity
  8
0
100
AcDbSpline
210
0.0
220
0.0
230
1.0
 70
    11
 71
     3
 72
    77
 73
    73
 74
     0
 42
0.0000000001
 43
0.0000000001
 40
0.0
 40
0.0
 40
0.0
 40
0.0
 40
1.0
 40
1.0
 40
1.0
 40
2.0
 40
2.0
 40
2.0
 40
3.0
 40
3.0
 40
3.0
 40
4.0
 40
4.0
 40
4.0
 40
5.0
 40
5.0
 40
5.0
 40
6.0
 40
6.0
 40
6.0
 40
7.0
 40
7.0
 40
7.0
 40
8.0
 40
8.0
 40
8.0
 40
9.0
 40
9.0
 40
9.0
 40
10.0
 40
10.0
 40
10.0
 40
11.0
 40
11.0
 40
11.0
 40
12.0
 40
12.0
 40
12.0
 40
13.0
 40
13.0
 40
13.0
 40
14.0
 40
14.0
 40
14.0
 40
15.0
 40
15.0
 40
15.0
 40
16.0
 40
16.0
 40
16.0
 40
17.0
 40
17.0
 40
17.0
 40
18.0
 40
18.0
 40
18.0
 40
19.0
 40
19.0
 40
19.0
 40
20.0
 40
20.0
 40
20.0
 40
21.0
 40
21.0
 40
21.0
 40
22.0
 40
22.0
 40
22.0
 40
23.0
 40
23.0
 40
23.0
 40
24.0
 40
24.0
 40
24.0
 40
24.0
 10
-32.96405164106455
 20
-36.63376735195267
 30
0.0
 10
-33.00642631553312
 20
-36.63376735195267
 30
0.0
 10
-33.04053276083709
 20
-36.61964246046315
 30
0.0
 10
-33.06637097697647
 20
-36.5913926774841
 30
0.0
 10
-33.09220919311584
 20
-36.56314289450505
 30
0.0
 10
-33.10512830118553
 20
-36.53041448739518
 30
0.0
 10
-33.10512830118553
 20
-36.49251843705743
 30
0.0
 10
-33.10512830118553
 20
-36.49251843705743
 30
0.0
 10
-33.10512830118553
 20
-31.83612737919375
 30
0.0
 10
-33.10512830118553
 20
-31.83612737919375
 30
0.0
 10
-33.10512830118553
 20
-31.798231328856
 30
0.0
 10
-33.091003409696
 20
-31.76550292174613
 30
0.0
 10
-33.06275362671696
 20
-31.73725313876708
 30
0.0
 10
-33.0345038437379
 20
-31.70900335578803
 30
0.0
 10
-33.00177543662803
 20
-31.69487846429851
 30
0.0
 10
-32.96405164106455
 20
-31.69487846429851
 30
0.0
 10
-32.96405164106455
 20
-31.69487846429851
 30
0.0
 10
-30.30409341690314
 20
-31.69487846429851
 30
0.0
 10
-30.30409341690314
 20
-31.69487846429851
 30
0.0
 10
-30.26654187611392
 20
-31.69487846429851
 30
0.0
 10
-30.23346895945552
 20
-31.70900335578803
 30
0.0
 10
-30.20521917647648
 20
-31.73725313876708
 30
0.0
 10
-30.17714164827169
 20
-31.76550292174613
 30
0.0
 10
-30.16301675678216
 20
-31.798231328856
 30
0.0
 10
-30.16301675678216
 20
-31.83612737919375
 30
0.0
 10
-30.16301675678216
 20
-31.8781575441138
 30
0.0
 10
-30.17714164827169
 20
-31.91260849896629
 30
0.0
 10
-30.20521917647648
 20
-31.93844671510567
 30
0.0
 10
-30.23346895945552
 20
-31.96428493124504
 30
0.0
 10
-30.26654187611392
 20
-31.97703178454047
 30
0.0
 10
-30.30409341690314
 20
-31.97703178454047
 30
0.0
 10
-30.30409341690314
 20
-31.97703178454047
 30
0.0
 10
-32.84399006340359
 20
-31.97703178454047
 30
0.0
 10
-32.84399006340359
 20
-31.97703178454047
 30
0.0
 10
-32.84399006340359
 20
-31.97703178454047
 30
0.0
 10
-32.82297498094357
 20
-31.94878200156141
 30
0.0
 10
-32.82297498094357
 20
-31.94878200156141
 30
0.0
 10
-32.82297498094357
 20
-31.94878200156141
 30
0.0
 10
-32.82297498094357
 20
-33.9810438283103
 30
0.0
 10
-32.82297498094357
 20
-33.9810438283103
 30
0.0
 10
-32.82297498094357
 20
-33.9810438283103
 30
0.0
 10
-32.85105250914835
 20
-33.9245442623522
 30
0.0
 10
-32.85105250914835
 20
-33.9245442623522
 30
0.0
 10
-32.85105250914835
 20
-33.9245442623522
 30
0.0
 10
-30.62155896586892
 20
-33.9245442623522
 30
0.0
 10
-30.62155896586892
 20
-33.9245442623522
 30
0.0
 10
-30.5840074250797
 20
-33.9245442623522
 30
0.0
 10
-30.5509345084213
 20
-33.93866915384172
 30
0.0
 10
-30.52285698021651
 20
-33.96691893682078
 30
0.0
 10
-30.49460719723746
 20
-33.9948242102513
 30
0.0
 10
-30.48048230574794
 20
-34.0278971269097
 30
0.0
 10
-30.48048230574794
 20
-34.06544866769892
 30
0.0
 10
-30.48048230574794
 20
-34.1078233421675
 30
0.0
 10
-30.49460719723746
 20
-34.14192978747146
 30
0.0
 10
-30.52285698021651
 20
-34.16776800361084
 30
0.0
 10
-30.5509345084213
 20
-34.19360621975021
 30
0.0
 10
-30.5840074250797
 20
-34.20669758259416
 30
0.0
 10
-30.62155896586892
 20
-34.20669758259416
 30
0.0
 10
-30.62155896586892
 20
-34.20669758259416
 30
0.0
 10
-32.86517740063788
 20
-34.20669758259416
 30
0.0
 10
-32.86517740063788
 20
-34.20669758259416
 30
0.0
 10
-32.86517740063788
 20
-34.20669758259416
 30
0.0
 10
-32.82297498094357
 20
-34.15019801663606
 30
0.0
 10
-32.82297498094357
 20
-34.15019801663606
 30
0.0
 10
-32.82297498094357
 20
-34.15019801663606
 30
0.0
 10
-32.82297498094357
 20
-36.49251843705743
 30
0.0
 10
-32.82297498094357
 20
-36.49251843705743
 30
0.0
 10
-32.82297498094357
 20
-36.53041448739518
 30
0.0
 10
-32.83589408901325
 20
-36.56314289450505
 30
0.0
 10
-32.86173230515262
 20
-36.5913926774841
 30
0.0
 10
-32.887570521292
 20
-36.61964246046315
 30
0.0
 10
-32.92167696659598
 20
-36.63376735195267
 30
0.0
 10
-32.96405164106455
 20
-36.63376735195267
 30
0.0
  0
HATCH
  5
D7
330
BA
100
AcDbEntity
  8
0
 62
    18
420
        0
440
 33554687
100
AcDbHatch
 10
0.0
 20
0.0
 30
0.0
210
0.0
220
0.0
230
1.0
  2
SOLID
 70
     1
 71
     1
 91
        1
 92
        1
 93
        1
 72
     4
 94
        3
 73
     0
 74
     0
 95
       77
 96
       73
 40
0.0
 40
0.0
 40
0.0
 40
0.0
 40
1.0
 40
1.0
 40
1.0
 40
2.0
 40
2.0
 40
2.0
 40
3.0
 40
3.0
 40
3.0
 40
4.0
 40
4.0
 40
4.0
 40
5.0
 40
5.0
 40
5.0
 40
6.0
 40
6.0
 40
6.0
 40
7.0
 40
7.0
 40
7.0
 40
8.0
 40
8.0
 40
8.0
 40
9.0
 40
9.0
 40
9.0
 40
10.0
 40
10.0
 40
10.0
 40
11.0
 40
11.0
 40
11.0
 40
12.0
 40
12.0
 40
12.0
 40
13.0
 40
13.0
 40
13.0
 40
14.0
 40
14.0
 40
14.0
 40
15.0
 40
15.0
 40
15.0
 40
16.0
 40
16.0
 40
16.0
 40
17.0
 40
17.0
 40
17.0
 40
18.0
 40
18.0
 40
18.0
 40
19.0
 40
19.0
 40
19.0
 40
20.0
 40
20.0
 40
20.0
 40
21.0
 40
21.0
 40
21.0
 40
22.0
 40
22.0
 40
22.0
 40
23.0
 40
23.0
 40
23.0
 40
24.0
 40
24.0
 40
24.0
 40
24.0
 10
-32.96405164106455
 20
-36.63376735195267
 10
-33.00642631553312
 20
-36.63376735195267
 10
-33.04053276083709
 20
-36.61964246046315
 10
-33.06637097697647
 20
-36.5913926774841
 10
-33.09220919311584
 20
-36.56314289450505
 10
-33.10512830118553
 20
-36.53041448739518
 10
-33.10512830118553
 20
-36.49251843705743
 10
-33.10512830118553
 20
-36.49251843705743
 10
-33.10512830118553
 20
-31.83612737919375
 10
-33.10512830118553
 20
-31.83612737919375
 10
-33.10512830118553
 20
-31.798231328856
 10
-33.091003409696
 20
-31.76550292174613
 10
-33.06275362671696
 20
-31.73725313876708
 10
-33.0345038437379
 20
-31.70900335578803
 10
-33.00177543662803
 20
-31.69487846429851
 10
-32.96405164106455
 20
-31.69487846429851
 10
-32.96405164106455
 20
-31.69487846429851
 10
-30.30409341690314
 20
-31.69487846429851
 10
-30.30409341690314
 20
-31.69487846429851
 10
-30.26654187611392
 20
-31.69487846429851
 10
-30.23346895945552
 20
-31.70900335578803
 10
-30.20521917647648
 20
-31.73725313876708
 10
-30.17714164827169
 20
-31.76550292174613
 10
-30.16301675678216
 20
-31.798231328856
 10
-30.16301675678216
 20
-31.83612737919375
 10
-30.16301675678216
 20
-31.8781575441138
 10
-30.17714164827169
 20
-31.91260849896629
 10
-30.20521917647648
 20
-31.93844671510567
 10
-30.23346895945552
 20
-31.96428493124504
 10
-30.26654187611392
 20
-31.97703178454047
 10
-30.30409341690314
 20
-31.97703178454047
 10
-30.30409341690314
 20
-31.97703178454047
 10
-32.84399006340359
 20
-31.97703178454047
 10
-32.84399006340359
 20
-31.97703178454047
 10
-32.84399006340359
 20
-31.97703178454047
 10
-32.82297498094357
 20
-31.94878200156141
 10
-32.82297498094357
 20
-31.94878200156141
 10
-32.82297498094357
 20
-31.94878200156141
 10
-32.82297498094357
 20
-33.9810438283103
 10
-32.82297498094357
 20
-33.9810438283103
 10
-32.82297498094357
 20
-33.9810438283103
 10
-32.85105250914835
 20
-33.9245442623522
 10
-32.85105250914835
 20
-33.9245442623522
 10
-32.85105250914835
 20
-33.9245442623522
 10
-30.62155896586892
 20
-33.9245442623522
 10
-30.62155896586892
 20
-33.9245442623522
 10
-30.5840074250797
 20
-33.9245442623522
 10
-30.5509345084213
 20
-33.93866915384172
 10
-30.52285698021651
 20
-33.96691893682078
 10
-30.49460719723746
 20
-33.9948242102513
 10
-30.48048230574794
 20
-34.0278971269097
 10
-30.48048230574794
 20
-34.06544866769892
 10
-30.48048230574794
 20
-34.1078233421675
 10
-30.49460719723746
 20
-34.14192978747146
 10
-30.52285698021651
 20
-34.16776800361084
 10
-30.5509345084213
 20
-34.19360621975021
 10
-30.5840074250797
 20
-34.20669758259416
 10
-30.62155896586892
 20
-34.20669758259416
 10
-30.62155896586892
 20
-34.20669758259416
 10
-32.86517740063788
 20
-34.20669758259416
 10
-32.86517740063788
 20
-34.20669758259416
 10
-32.86517740063788
 20
-34.20669758259416
 10
-32.82297498094357
 20
-34.15019801663606
 10
-32.82297498094357
 20
-34.15019801663606
 10
-32.82297498094357
 20
-34.15019801663606
 10
-32.82297498094357
 20
-36.49251843705743
 10
-32.82297498094357
 20
-36.49251843705743
 10
-32.82297498094357
 20
-36.53041448739518
 10
-32.83589408901325
 20
-36.56314289450505
 10
-32.86173230515262
 20
-36.5913926774841
 10
-32.887570521292
 20
-36.61964246046315
 10
-32.92167696659598
 20
-36.63376735195267
 10
-32.96405164106455
 20
-36.63376735195267
 97
        0
 97
        1
330
D6
 75
     2
 76
     1
 98
        1
 10
0.0
 20
0.0
450
        0
451
        0
460
0.0
461
0.0
452
        0
462
0.0
453
        0
470

  0
SPLINE
  5
D8
330
BA
100
AcDbEntity
  8
0
100
AcDbSpline
210
0.0
220
0.0
230
1.0
 70
     9
 71
     3
 72
    35
 73
    31
 74
     0
 42
0.0000000001
 43
0.0000000001
 40
0.0
 40
0.0
 40
0.0
 40
0.0
 40
1.0
 40
1.0
 40
1.0
 40
2.0
 40
2.0
 40
2.0
 40
3.0
 40
3.0
 40
3.0
 40
4.0
 40
4.0
 40
4.0
 40
5.0
 40
5.0
 40
5.0
 40
6.0
 40
6.0
 40
6.0
 40
7.0
 40
7.0
 40
7.0
 40
8.0
 40
8.0
 40
8.0
 40
9.0
 40
9.0
 40
9.0
 40
10.0
 40
10.0
 40
10.0
 40
10.0
 10
-25.14661322070988
 20
-34.24907225706274
 30
0.0
 10
-25.14661322070988
 20
-34.24907225706274
 30
0.0
 10
-26.93168944639208
 20
-34.24907225706274
 30
0.0
 10
-26.93168944639208
 20
-34.24907225706274
 30
0.0
 10
-26.93168944639208
 20
-34.24907225706274
 30
0.0
 10
-26.90343966341303
 20
-34.20669758259416
 30
0.0
 10
-26.90343966341303
 20
-34.20669758259416
 30
0.0
 10
-26.90343966341303
 20
-34.20669758259416
 30
0.0
 10
-26.90343966341303
 20
-36.40811359766881
 30
0.0
 10
-26.90343966341303
 20
-36.40811359766881
 30
0.0
 10
-26.90343966341303
 20
-36.40811359766881
 30
0.0
 10
-26.93857963736258
 20
-36.35161403171071
 30
0.0
 10
-26.93857963736258
 20
-36.35161403171071
 30
0.0
 10
-26.93857963736258
 20
-36.35161403171071
 30
0.0
 10
-25.14661322070988
 20
-36.35161403171071
 30
0.0
 10
-25.14661322070988
 20
-36.35161403171071
 30
0.0
 10
-24.81261121341491
 20
-36.35161403171071
 30
0.0
 10
-24.53269720523835
 20
-36.26824272096766
 30
0.0
 10
-24.30687119618023
 20
-36.10115558993304
 30
0.0
 10
-24.08121744189636
 20
-35.93406845889843
 30
0.0
 10
-23.96821830998017
 20
-35.66707355879156
 30
0.0
 10
-23.96821830998017
 20
-35.30017088961246
 30
0.0
 10
-23.96821830998017
 20
-35.05591361970824
 30
0.0
 10
-24.02006699703318
 20
-34.85575357201523
 30
0.0
 10
-24.12341986159067
 20
-34.70037976563047
 30
0.0
 10
-24.22694498092243
 20
-34.54535046879422
 30
0.0
 10
-24.36819389581768
 20
-34.43131780823245
 30
0.0
 10
-24.54682209672788
 20
-34.35828178394515
 30
0.0
 10
-24.72562255241235
 20
-34.28559026920638
 30
0.0
 10
-24.92543809055684
 20
-34.24907225706274
 30
0.0
 10
-25.14661322070988
 20
-34.24907225706274
 30
0.0
  0
SPLINE
  5
D9
330
BA
100
AcDbEntity
  8
0
100
AcDbSpline
210
0.0
220
0.0
230
1.0
 70
     9
 71
     3
 72
    32
 73
    28
 74
     0
 42
0.0000000001
 43
0.0000000001
 40
0.0
 40
0.0
 40
0.0
 40
0.0
 40
1.0
 40
1.0
 40
1.0
 40
2.0
 40
2.0
 40
2.0
 40
3.0
 40
3.0
 40
3.0
 40
4.0
 40
4.0
 40
4.0
 40
5.0
 40
5.0
 40
5.0
 40
6.0
 40
6.0
 40
6.0
 40
7.0
 40
7.0
 40
7.0
 40
8.0
 40
8.0
 40
8.0
 40
9.0
 40
9.0
 40
9.0
 40
9.0
 10
-25.19587808614895
 20
-31.97703178454047
 30
0.0
 10
-25.19587808614895
 20
-31.97703178454047
 30
0.0
 10
-26.98095431183115
 20
-31.97703178454047
 30
0.0
 10
-26.98095431183115
 20
-31.97703178454047
 30
0.0
 10
-26.98095431183115
 20
-31.97703178454047
 30
0.0
 10
-26.90343966341303
 20
-31.84301757016425
 30
0.0
 10
-26.90343966341303
 20
-31.84301757016425
 30
0.0
 10
-26.90343966341303
 20
-31.84301757016425
 30
0.0
 10
-26.90343966341303
 20
-34.07957355918844
 30
0.0
 10
-26.90343966341303
 20
-34.07957355918844
 30
0.0
 10
-26.90343966341303
 20
-34.07957355918844
 30
0.0
 10
-26.97389186608639
 20
-33.95968423630175
 30
0.0
 10
-26.97389186608639
 20
-33.95968423630175
 30
0.0
 10
-26.97389186608639
 20
-33.95968423630175
 30
0.0
 10
-25.19587808614895
 20
-33.95968423630175
 30
0.0
 10
-25.19587808614895
 20
-33.95968423630175
 30
0.0
 10
-24.91837564481207
 20
-33.95520561217092
 30
0.0
 10
-24.68565944478345
 20
-33.86322156271475
 30
0.0
 10
-24.49738497651454
 20
-33.68442110703028
 30
0.0
 10
-24.3092827630199
 20
-33.50596516089434
 30
0.0
 10
-24.21523165627258
 20
-33.24000378943305
 30
0.0
 10
-24.21523165627258
 20
-32.88722601174348
 30
0.0
 10
-24.21523165627258
 20
-32.61437444931168
 30
0.0
 10
-24.29980875043547
 20
-32.39457735735275
 30
0.0
 10
-24.4691351935355
 20
-32.22749022631813
 30
0.0
 10
-24.63863389140979
 20
-32.06074760483204
 30
0.0
 10
-24.88082410402285
 20
-31.97703178454047
 30
0.0
 10
-25.19587808614895
 20
-31.97703178454047
 30
0.0
  0
SPLINE
  5
DA
330
BA
100
AcDbEntity
  8
0
100
AcDbSpline
210
0.0
220
0.0
230
1.0
 70
     9
 71
     3
 72
    68
 73
    64
 74
     0
 42
0.0000000001
 43
0.0000000001
 40
0.0
 40
0.0
 40
0.0
 40
0.0
 40
1.0
 40
1.0
 40
1.0
 40
2.0
 40
2.0
 40
2.0
 40
3.0
 40
3.0
 40
3.0
 40
4.0
 40
4.0
 40
4.0
 40
5.0
 40
5.0
 40
5.0
 40
6.0
 40
6.0
 40
6.0
 40
7.0
 40
7.0
 40
7.0
 40
8.0
 40
8.0
 40
8.0
 40
9.0
 40
9.0
 40
9.0
 40
10.0
 40
10.0
 40
10.0
 40
11.0
 40
11.0
 40
11.0
 40
12.0
 40
12.0
 40
12.0
 40
13.0
 40
13.0
 40
13.0
 40
14.0
 40
14.0
 40
14.0
 40
15.0
 40
15.0
 40
15.0
 40
16.0
 40
16.0
 40
16.0
 40
17.0
 40
17.0
 40
17.0
 40
18.0
 40
18.0
 40
18.0
 40
19.0
 40
19.0
 40
19.0
 40
20.0
 40
20.0
 40
20.0
 40
21.0
 40
21.0
 40
21.0
 40
21.0
 10
-25.1607381121994
 20
-31.69487846429851
 30
0.0
 10
-24.78436143043586
 20
-31.69487846429851
 30
0.0
 10
-24.48326008502502
 20
-31.80305446253535
 30
0.0
 10
-24.25760633074116
 20
-32.01940645900904
 30
0.0
 10
-24.03178032168303
 20
-32.23575845548273
 30
0.0
 10
-23.9189534445411
 20
-32.52755804308339
 30
0.0
 10
-23.9189534445411
 20
-32.8944607122625
 30
0.0
 10
-23.9189534445411
 20
-33.08738605943649
 30
0.0
 10
-23.95771076875016
 20
-33.27411023473703
 30
0.0
 10
-24.03522541716828
 20
-33.45532225726117
 30
0.0
 10
-24.11291232036066
 20
-33.63653427978532
 30
0.0
 10
-24.22694498092243
 20
-33.78570691429664
 30
0.0
 10
-24.37749565362785
 20
-33.90318467034365
 30
0.0
 10
-24.52804632633327
 20
-34.02100693593919
 30
0.0
 10
-24.7139092277625
 20
-34.08921982654714
 30
0.0
 10
-24.93491210314128
 20
-34.1078233421675
 30
0.0
 10
-24.93491210314128
 20
-34.1078233421675
 30
0.0
 10
-24.98434922335461
 20
-34.02307399323034
 30
0.0
 10
-24.98434922335461
 20
-34.02307399323034
 30
0.0
 10
-24.80089788876505
 20
-34.02307399323034
 30
0.0
 10
-24.62915987882535
 20
-34.05029024756382
 30
0.0
 10
-24.4691351935355
 20
-34.10437824668224
 30
0.0
 10
-24.3092827630199
 20
-34.15846624580066
 30
0.0
 10
-24.1706176697386
 20
-34.23977049925256
 30
0.0
 10
-24.05296765891732
 20
-34.34760198794088
 30
0.0
 10
-23.9354899028703
 20
-34.45612249572625
 30
0.0
 10
-23.84247232476855
 20
-34.58875867190837
 30
0.0
 10
-23.7742594341606
 20
-34.74654404513281
 30
0.0
 10
-23.70604654355266
 20
-34.90398490880873
 30
0.0
 10
-23.67194009824868
 20
-35.08864202681812
 30
0.0
 10
-23.67194009824868
 20
-35.30017088961246
 30
0.0
 10
-23.67194009824868
 20
-35.52616915344485
 30
0.0
 10
-23.70966389381217
 20
-35.72253959610409
 30
0.0
 10
-23.78476697539062
 20
-35.88928221759018
 30
0.0
 10
-23.86004231174332
 20
-36.0563693486248
 30
0.0
 10
-23.96356743107508
 20
-36.19520669668037
 30
0.0
 10
-24.09534233338589
 20
-36.30579426175689
 30
0.0
 10
-24.22694498092243
 20
-36.41638182683341
 30
0.0
 10
-24.37990722046752
 20
-36.49871960893088
 30
0.0
 10
-24.55388454247264
 20
-36.55246309850078
 30
0.0
 10
-24.72803411925202
 20
-36.60689560716772
 30
0.0
 10
-24.91372476590699
 20
-36.63376735195267
 30
0.0
 10
-25.11130099198606
 20
-36.63376735195267
 30
0.0
 10
-25.11130099198606
 20
-36.63376735195267
 30
0.0
 10
-27.05864121502354
 20
-36.63376735195267
 30
0.0
 10
-27.05864121502354
 20
-36.63376735195267
 30
0.0
 10
-27.09636501058702
 20
-36.63376735195267
 30
0.0
 10
-27.1290934176969
 20
-36.61964246046315
 30
0.0
 10
-27.15734320067594
 20
-36.5913926774841
 30
0.0
 10
-27.18559298365499
 20
-36.56314289450505
 30
0.0
 10
-27.19971787514452
 20
-36.53041448739518
 30
0.0
 10
-27.19971787514452
 20
-36.49251843705743
 30
0.0
 10
-27.19971787514452
 20
-36.49251843705743
 30
0.0
 10
-27.19971787514452
 20
-31.83612737919375
 30
0.0
 10
-27.19971787514452
 20
-31.83612737919375
 30
0.0
 10
-27.19971787514452
 20
-31.798231328856
 30
0.0
 10
-27.18559298365499
 20
-31.76550292174613
 30
0.0
 10
-27.15734320067594
 20
-31.73725313876708
 30
0.0
 10
-27.1290934176969
 20
-31.70900335578803
 30
0.0
 10
-27.09636501058702
 20
-31.69487846429851
 30
0.0
 10
-27.05864121502354
 20
-31.69487846429851
 30
0.0
 10
-27.05864121502354
 20
-31.69487846429851
 30
0.0
 10
-25.1607381121994
 20
-31.69487846429851
 30
0.0
 10
-25.1607381121994
 20
-31.69487846429851
 30
0.0
  0
HATCH
  5
DB
330
BA
100
AcDbEntity
  8
0
 62
    18
420
        0
440
 33554687
100
AcDbHatch
 10
0.0
 20
0.0
 30
0.0
210
0.0
220
0.0
230
1.0
  2
SOLID
 70
     1
 71
     1
 91
        3
 92
        1
 93
        1
 72
     4
 94
        3
 73
     0
 74
     0
 95
       35
 96
       31
 40
0.0
 40
0.0
 40
0.0
 40
0.0
 40
1.0
 40
1.0
 40
1.0
 40
2.0
 40
2.0
 40
2.0
 40
3.0
 40
3.0
 40
3.0
 40
4.0
 40
4.0
 40
4.0
 40
5.0
 40
5.0
 40
5.0
 40
6.0
 40
6.0
 40
6.0
 40
7.0
 40
7.0
 40
7.0
 40
8.0
 40
8.0
 40
8.0
 40
9.0
 40
9.0
 40
9.0
 40
10.0
 40
10.0
 40
10.0
 40
10.0
 10
-25.14661322070988
 20
-34.24907225706274
 10
-25.14661322070988
 20
-34.24907225706274
 10
-26.93168944639208
 20
-34.24907225706274
 10
-26.93168944639208
 20
-34.24907225706274
 10
-26.93168944639208
 20
-34.24907225706274
 10
-26.90343966341303
 20
-34.20669758259416
 10
-26.90343966341303
 20
-34.20669758259416
 10
-26.90343966341303
 20
-34.20669758259416
 10
-26.90343966341303
 20
-36.40811359766881
 10
-26.90343966341303
 20
-36.40811359766881
 10
-26.90343966341303
 20
-36.40811359766881
 10
-26.93857963736258
 20
-36.35161403171071
 10
-26.93857963736258
 20
-36.35161403171071
 10
-26.93857963736258
 20
-36.35161403171071
 10
-25.14661322070988
 20
-36.35161403171071
 10
-25.14661322070988
 20
-36.35161403171071
 10
-24.81261121341491
 20
-36.35161403171071
 10
-24.53269720523835
 20
-36.26824272096766
 10
-24.30687119618023
 20
-36.10115558993304
 10
-24.08121744189636
 20
-35.93406845889843
 10
-23.96821830998017
 20
-35.66707355879156
 10
-23.96821830998017
 20
-35.30017088961246
 10
-23.96821830998017
 20
-35.05591361970824
 10
-24.02006699703318
 20
-34.85575357201523
 10
-24.12341986159067
 20
-34.70037976563047
 10
-24.22694498092243
 20
-34.54535046879422
 10
-24.36819389581768
 20
-34.43131780823245
 10
-24.54682209672788
 20
-34.35828178394515
 10
-24.72562255241235
 20
-34.28559026920638
 10
-24.92543809055684
 20
-34.24907225706274
 10
-25.14661322070988
 20
-34.24907225706274
 97
        0
 97
        1
330
D8
 92
        1
 93
        1
 72
     4
 94
        3
 73
     0
 74
     0
 95
       32
 96
       28
 40
0.0
 40
0.0
 40
0.0
 40
0.0
 40
1.0
 40
1.0
 40
1.0
 40
2.0
 40
2.0
 40
2.0
 40
3.0
 40
3.0
 40
3.0
 40
4.0
 40
4.0
 40
4.0
 40
5.0
 40
5.0
 40
5.0
 40
6.0
 40
6.0
 40
6.0
 40
7.0
 40
7.0
 40
7.0
 40
8.0
 40
8.0
 40
8.0
 40
9.0
 40
9.0
 40
9.0
 40
9.0
 10
-25.19587808614895
 20
-31.97703178454047
 10
-25.19587808614895
 20
-31.97703178454047
 10
-26.98095431183115
 20
-31.97703178454047
 10
-26.98095431183115
 20
-31.97703178454047
 10
-26.98095431183115
 20
-31.97703178454047
 10
-26.90343966341303
 20
-31.84301757016425
 10
-26.90343966341303
 20
-31.84301757016425
 10
-26.90343966341303
 20
-31.84301757016425
 10
-26.90343966341303
 20
-34.07957355918844
 10
-26.90343966341303
 20
-34.07957355918844
 10
-26.90343966341303
 20
-34.07957355918844
 10
-26.97389186608639
 20
-33.95968423630175
 10
-26.97389186608639
 20
-33.95968423630175
 10
-26.97389186608639
 20
-33.95968423630175
 10
-25.19587808614895
 20
-33.95968423630175
 10
-25.19587808614895
 20
-33.95968423630175
 10
-24.91837564481207
 20
-33.95520561217092
 10
-24.68565944478345
 20
-33.86322156271475
 10
-24.49738497651454
 20
-33.68442110703028
 10
-24.3092827630199
 20
-33.50596516089434
 10
-24.21523165627258
 20
-33.24000378943305
 10
-24.21523165627258
 20
-32.88722601174348
 10
-24.21523165627258
 20
-32.61437444931168
 10
-24.29980875043547
 20
-32.39457735735275
 10
-24.4691351935355
 20
-32.22749022631813
 10
-24.63863389140979
 20
-32.06074760483204
 10
-24.88082410402285
 20
-31.97703178454047
 10
-25.19587808614895
 20
-31.97703178454047
 97
        0
 97
        1
330
D9
 92
        1
 93
        1
 72
     4
 94
        3
 73
     0
 74
     0
 95
       68
 96
       64
 40
0.0
 40
0.0
 40
0.0
 40
0.0
 40
1.0
 40
1.0
 40
1.0
 40
2.0
 40
2.0
 40
2.0
 40
3.0
 40
3.0
 40
3.0
 40
4.0
 40
4.0
 40
4.0
 40
5.0
 40
5.0
 40
5.0
 40
6.0
 40
6.0
 40
6.0
 40
7.0
 40
7.0
 40
7.0
 40
8.0
 40
8.0
 40
8.0
 40
9.0
 40
9.0
 40
9.0
 40
10.0
 40
10.0
 40
10.0
 40
11.0
 40
11.0
 40
11.0
 40
12.0
 40
12.0
 40
12.0
 40
13.0
 40
13.0
 40
13.0
 40
14.0
 40
14.0
 40
14.0
 40
15.0
 40
15.0
 40
15.0
 40
16.0
 40
16.0
 40
16.0
 40
17.0
 40
17.0
 40
17.0
 40
18.0
 40
18.0
 40
18.0
 40
19.0
 40
19.0
 40
19.0
 40
20.0
 40
20.0
 40
20.0
 40
21.0
 40
21.0
 40
21.0
 40
21.0
 10
-25.1607381121994
 20
-31.69487846429851
 10
-24.78436143043586
 20
-31.69487846429851
 10
-24.48326008502502
 20
-31.80305446253535
 10
-24.25760633074116
 20
-32.01940645900904
 10
-24.03178032168303
 20
-32.23575845548273
 10
-23.9189534445411
 20
-32.52755804308339
 10
-23.9189534445411
 20
-32.8944607122625
 10
-23.9189534445411
 20
-33.08738605943649
 10
-23.95771076875016
 20
-33.27411023473703
 10
-24.03522541716828
 20
-33.45532225726117
 10
-24.11291232036066
 20
-33.63653427978532
 10
-24.22694498092243
 20
-33.78570691429664
 10
-24.37749565362785
 20
-33.90318467034365
 10
-24.52804632633327
 20
-34.02100693593919
 10
-24.7139092277625
 20
-34.08921982654714
 10
-24.93491210314128
 20
-34.1078233421675
 10
-24.93491210314128
 20
-34.1078233421675
 10
-24.98434922335461
 20
-34.02307399323034
 10
-24.98434922335461
 20
-34.02307399323034
 10
-24.80089788876505
 20
-34.02307399323034
 10
-24.62915987882535
 20
-34.05029024756382
 10
-24.4691351935355
 20
-34.10437824668224
 10
-24.3092827630199
 20
-34.15846624580066
 10
-24.1706176697386
 20
-34.23977049925256
 10
-24.05296765891732
 20
-34.34760198794088
 10
-23.9354899028703
 20
-34.45612249572625
 10
-23.84247232476855
 20
-34.58875867190837
 10
-23.7742594341606
 20
-34.74654404513281
 10
-23.70604654355266
 20
-34.90398490880873
 10
-23.67194009824868
 20
-35.08864202681812
 10
-23.67194009824868
 20
-35.30017088961246
 10
-23.67194009824868
 20
-35.52616915344485
 10
-23.70966389381217
 20
-35.72253959610409
 10
-23.78476697539062
 20
-35.88928221759018
 10
-23.86004231174332
 20
-36.0563693486248
 10
-23.96356743107508
 20
-36.19520669668037
 10
-24.09534233338589
 20
-36.30579426175689
 10
-24.22694498092243
 20
-36.41638182683341
 10
-24.37990722046752
 20
-36.49871960893088
 10
-24.55388454247264
 20
-36.55246309850078
 10
-24.72803411925202
 20
-36.60689560716772
 10
-24.91372476590699
 20
-36.63376735195267
 10
-25.11130099198606
 20
-36.63376735195267
 10
-25.11130099198606
 20
-36.63376735195267
 10
-27.05864121502354
 20
-36.63376735195267
 10
-27.05864121502354
 20
-36.63376735195267
 10
-27.09636501058702
 20
-36.63376735195267
 10
-27.1290934176969
 20
-36.61964246046315
 10
-27.15734320067594
 20
-36.5913926774841
 10
-27.18559298365499
 20
-36.56314289450505
 10
-27.19971787514452
 20
-36.53041448739518
 10
-27.19971787514452
 20
-36.49251843705743
 10
-27.19971787514452
 20
-36.49251843705743
 10
-27.19971787514452
 20
-31.83612737919375
 10
-27.19971787514452
 20
-31.83612737919375
 10
-27.19971787514452
 20
-31.798231328856
 10
-27.18559298365499
 20
-31.76550292174613
 10
-27.15734320067594
 20
-31.73725313876708
 10
-27.1290934176969
 20
-31.70900335578803
 10
-27.09636501058702
 20
-31.69487846429851
 10
-27.05864121502354
 20
-31.69487846429851
 10
-27.05864121502354
 20
-31.69487846429851
 10
-25.1607381121994
 20
-31.69487846429851
 10
-25.1607381121994
 20
-31.69487846429851
 97
        0
 97
        1
330
DA
 75
     2
 76
     1
 98
        1
 10
0.0
 20
0.0
450
        0
451
        0
460
0.0
461
0.0
452
        0
462
0.0
453
        0
470

  0
SPLINE
  5
DC
330
BA
100
AcDbEntity
  8
0
100
AcDbSpline
210
0.0
220
0.0
230
1.0
 70
     9
 71
     3
 72
    92
 73
    88
 74
     0
 42
0.0000000001
 43
0.0000000001
 40
0.0
 40
0.0
 40
0.0
 40
0.0
 40
1.0
 40
1.0
 40
1.0
 40
2.0
 40
2.0
 40
2.0
 40
3.0
 40
3.0
 40
3.0
 40
4.0
 40
4.0
 40
4.0
 40
5.0
 40
5.0
 40
5.0
 40
6.0
 40
6.0
 40
6.0
 40
7.0
 40
7.0
 40
7.0
 40
8.0
 40
8.0
 40
8.0
 40
9.0
 40
9.0
 40
9.0
 40
10.0
 40
10.0
 40
10.0
 40
11.0
 40
11.0
 40
11.0
 40
12.0
 40
12.0
 40
12.0
 40
13.0
 40
13.0
 40
13.0
 40
14.0
 40
14.0
 40
14.0
 40
15.0
 40
15.0
 40
15.0
 40
16.0
 40
16.0
 40
16.0
 40
17.0
 40
17.0
 40
17.0
 40
18.0
 40
18.0
 40
18.0
 40
19.0
 40
19.0
 40
19.0
 40
20.0
 40
20.0
 40
20.0
 40
21.0
 40
21.0
 40
21.0
 40
22.0
 40
22.0
 40
22.0
 40
23.0
 40
23.0
 40
23.0
 40
24.0
 40
24.0
 40
24.0
 40
25.0
 40
25.0
 40
25.0
 40
26.0
 40
26.0
 40
26.0
 40
27.0
 40
27.0
 40
27.0
 40
28.0
 40
28.0
 40
28.0
 40
29.0
 40
29.0
 40
29.0
 40
29.0
 10
-22.47253010505895
 20
-31.69487846429851
 30
0.0
 10
-22.47253010505895
 20
-31.69487846429851
 30
0.0
 10
-19.81257188089755
 20
-31.69487846429851
 30
0.0
 10
-19.81257188089755
 20
-31.69487846429851
 30
0.0
 10
-19.77502034010833
 20
-31.69487846429851
 30
0.0
 10
-19.74194742344993
 20
-31.70900335578803
 30
0.0
 10
-19.71369764047088
 20
-31.73725313876708
 30
0.0
 10
-19.6856201122661
 20
-31.76550292174613
 30
0.0
 10
-19.67149522077657
 20
-31.798231328856
 30
0.0
 10
-19.67149522077657
 20
-31.83612737919375
 30
0.0
 10
-19.67149522077657
 20
-31.8781575441138
 30
0.0
 10
-19.6856201122661
 20
-31.91260849896629
 30
0.0
 10
-19.71369764047088
 20
-31.93844671510567
 30
0.0
 10
-19.74194742344993
 20
-31.96428493124504
 30
0.0
 10
-19.77502034010833
 20
-31.97703178454047
 30
0.0
 10
-19.81257188089755
 20
-31.97703178454047
 30
0.0
 10
-19.81257188089755
 20
-31.97703178454047
 30
0.0
 10
-22.38778075612181
 20
-31.97703178454047
 30
0.0
 10
-22.38778075612181
 20
-31.97703178454047
 30
0.0
 10
-22.38778075612181
 20
-31.97703178454047
 30
0.0
 10
-22.31732855344845
 20
-31.85714246165377
 30
0.0
 10
-22.31732855344845
 20
-31.85714246165377
 30
0.0
 10
-22.31732855344845
 20
-31.85714246165377
 30
0.0
 10
-22.31732855344845
 20
-34.04443358523889
 30
0.0
 10
-22.31732855344845
 20
-34.04443358523889
 30
0.0
 10
-22.31732855344845
 20
-34.04443358523889
 30
0.0
 10
-22.40190564761133
 20
-33.94555934481223
 30
0.0
 10
-22.40190564761133
 20
-33.94555934481223
 30
0.0
 10
-22.40190564761133
 20
-33.94555934481223
 30
0.0
 10
-20.13003742986333
 20
-33.94555934481223
 30
0.0
 10
-20.13003742986333
 20
-33.94555934481223
 30
0.0
 10
-20.0924858890741
 20
-33.94555934481223
 30
0.0
 10
-20.0594129724157
 20
-33.95968423630175
 30
0.0
 10
-20.03133544421092
 20
-33.9879340192808
 30
0.0
 10
-20.00308566123187
 20
-34.01618380225985
 30
0.0
 10
-19.98896076974234
 20
-34.04925671891824
 30
0.0
 10
-19.98896076974234
 20
-34.08680825970747
 30
0.0
 10
-19.98896076974234
 20
-34.12918293417604
 30
0.0
 10
-20.00308566123187
 20
-34.16328937948001
 30
0.0
 10
-20.03133544421092
 20
-34.18912759561939
 30
0.0
 10
-20.0594129724157
 20
-34.21496581175876
 30
0.0
 10
-20.0924858890741
 20
-34.22771266505419
 30
0.0
 10
-20.13003742986333
 20
-34.22771266505419
 30
0.0
 10
-20.13003742986333
 20
-34.22771266505419
 30
0.0
 10
-22.38778075612181
 20
-34.22771266505419
 30
0.0
 10
-22.38778075612181
 20
-34.22771266505419
 30
0.0
 10
-22.38778075612181
 20
-34.22771266505419
 30
0.0
 10
-22.31732855344845
 20
-34.15019801663606
 30
0.0
 10
-22.31732855344845
 20
-34.15019801663606
 30
0.0
 10
-22.31732855344845
 20
-34.15019801663606
 30
0.0
 10
-22.31732855344845
 20
-36.38675400566026
 30
0.0
 10
-22.31732855344845
 20
-36.38675400566026
 30
0.0
 10
-22.31732855344845
 20
-36.38675400566026
 30
0.0
 10
-22.3455783364275
 20
-36.35161403171071
 30
0.0
 10
-22.3455783364275
 20
-36.35161403171071
 30
0.0
 10
-22.3455783364275
 20
-36.35161403171071
 30
0.0
 10
-19.81257188089755
 20
-36.35161403171071
 30
0.0
 10
-19.81257188089755
 20
-36.35161403171071
 30
0.0
 10
-19.77502034010833
 20
-36.35161403171071
 30
0.0
 10
-19.74194742344993
 20
-36.36573892320023
 30
0.0
 10
-19.71369764047088
 20
-36.39398870617928
 30
0.0
 10
-19.6856201122661
 20
-36.42223848915833
 30
0.0
 10
-19.67149522077657
 20
-36.45496689626821
 30
0.0
 10
-19.67149522077657
 20
-36.49251843705743
 30
0.0
 10
-19.67149522077657
 20
-36.53489311152601
 30
0.0
 10
-19.6856201122661
 20
-36.56899955682997
 30
0.0
 10
-19.71369764047088
 20
-36.59483777296935
 30
0.0
 10
-19.74194742344993
 20
-36.62102049865725
 30
0.0
 10
-19.77502034010833
 20
-36.63376735195267
 30
0.0
 10
-19.81257188089755
 20
-36.63376735195267
 30
0.0
 10
-19.81257188089755
 20
-36.63376735195267
 30
0.0
 10
-22.47253010505895
 20
-36.63376735195267
 30
0.0
 10
-22.47253010505895
 20
-36.63376735195267
 30
0.0
 10
-22.51025390062244
 20
-36.63376735195267
 30
0.0
 10
-22.54298230773231
 20
-36.61964246046315
 30
0.0
 10
-22.57123209071136
 20
-36.5913926774841
 30
0.0
 10
-22.59948187369041
 20
-36.56314289450505
 30
0.0
 10
-22.61360676517993
 20
-36.53041448739518
 30
0.0
 10
-22.61360676517993
 20
-36.49251843705743
 30
0.0
 10
-22.61360676517993
 20
-36.49251843705743
 30
0.0
 10
-22.61360676517993
 20
-31.83612737919375
 30
0.0
 10
-22.61360676517993
 20
-31.83612737919375
 30
0.0
 10
-22.61360676517993
 20
-31.798231328856
 30
0.0
 10
-22.59948187369041
 20
-31.76550292174613
 30
0.0
 10
-22.57123209071136
 20
-31.73725313876708
 30
0.0
 10
-22.54298230773231
 20
-31.70900335578803
 30
0.0
 10
-22.51025390062244
 20
-31.69487846429851
 30
0.0
 10
-22.47253010505895
 20
-31.69487846429851
 30
0.0
  0
HATCH
  5
DD
330
BA
100
AcDbEntity
  8
0
 62
    18
420
        0
440
 33554687
100
AcDbHatch
 10
0.0
 20
0.0
 30
0.0
210
0.0
220
0.0
230
1.0
  2
SOLID
 70
     1
 71
     1
 91
        1
 92
        1
 93
        1
 72
     4
 94
        3
 73
     0
 74
     0
 95
       92
 96
       88
 40
0.0
 40
0.0
 40
0.0
 40
0.0
 40
1.0
 40
1.0
 40
1.0
 40
2.0
 40
2.0
 40
2.0
 40
3.0
 40
3.0
 40
3.0
 40
4.0
 40
4.0
 40
4.0
 40
5.0
 40
5.0
 40
5.0
 40
6.0
 40
6.0
 40
6.0
 40
7.0
 40
7.0
 40
7.0
 40
8.0
 40
8.0
 40
8.0
 40
9.0
 40
9.0
 40
9.0
 40
10.0
 40
10.0
 40
10.0
 40
11.0
 40
11.0
 40
11.0
 40
12.0
 40
12.0
 40
12.0
 40
13.0
 40
13.0
 40
13.0
 40
14.0
 40
14.0
 40
14.0
 40
15.0
 40
15.0
 40
15.0
 40
16.0
 40
16.0
 40
16.0
 40
17.0
 40
17.0
 40
17.0
 40
18.0
 40
18.0
 40
18.0
 40
19.0
 40
19.0
 40
19.0
 40
20.0
 40
20.0
 40
20.0
 40
21.0
 40
21.0
 40
21.0
 40
22.0
 40
22.0
 40
22.0
 40
23.0
 40
23.0
 40
23.0
 40
24.0
 40
24.0
 40
24.0
 40
25.0
 40
25.0
 40
25.0
 40
26.0
 40
26.0
 40
26.0
 40
27.0
 40
27.0
 40
27.0
 40
28.0
 40
28.0
 40
28.0
 40
29.0
 40
29.0
 40
29.0
 40
29.0
 10
-22.47253010505895
 20
-31.69487846429851
 10
-22.47253010505895
 20
-31.69487846429851
 10
-19.81257188089755
 20
-31.69487846429851
 10
-19.81257188089755
 20
-31.69487846429851
 10
-19.77502034010833
 20
-31.69487846429851
 10
-19.74194742344993
 20
-31.70900335578803
 10
-19.71369764047088
 20
-31.73725313876708
 10
-19.6856201122661
 20
-31.76550292174613
 10
-19.67149522077657
 20
-31.798231328856
 10
-19.67149522077657
 20
-31.83612737919375
 10
-19.67149522077657
 20
-31.8781575441138
 10
-19.6856201122661
 20
-31.91260849896629
 10
-19.71369764047088
 20
-31.93844671510567
 10
-19.74194742344993
 20
-31.96428493124504
 10
-19.77502034010833
 20
-31.97703178454047
 10
-19.81257188089755
 20
-31.97703178454047
 10
-19.81257188089755
 20
-31.97703178454047
 10
-22.38778075612181
 20
-31.97703178454047
 10
-22.38778075612181
 20
-31.97703178454047
 10
-22.38778075612181
 20
-31.97703178454047
 10
-22.31732855344845
 20
-31.85714246165377
 10
-22.31732855344845
 20
-31.85714246165377
 10
-22.31732855344845
 20
-31.85714246165377
 10
-22.31732855344845
 20
-34.04443358523889
 10
-22.31732855344845
 20
-34.04443358523889
 10
-22.31732855344845
 20
-34.04443358523889
 10
-22.40190564761133
 20
-33.94555934481223
 10
-22.40190564761133
 20
-33.94555934481223
 10
-22.40190564761133
 20
-33.94555934481223
 10
-20.13003742986333
 20
-33.94555934481223
 10
-20.13003742986333
 20
-33.94555934481223
 10
-20.0924858890741
 20
-33.94555934481223
 10
-20.0594129724157
 20
-33.95968423630175
 10
-20.03133544421092
 20
-33.9879340192808
 10
-20.00308566123187
 20
-34.01618380225985
 10
-19.98896076974234
 20
-34.04925671891824
 10
-19.98896076974234
 20
-34.08680825970747
 10
-19.98896076974234
 20
-34.12918293417604
 10
-20.00308566123187
 20
-34.16328937948001
 10
-20.03133544421092
 20
-34.18912759561939
 10
-20.0594129724157
 20
-34.21496581175876
 10
-20.0924858890741
 20
-34.22771266505419
 10
-20.13003742986333
 20
-34.22771266505419
 10
-20.13003742986333
 20
-34.22771266505419
 10
-22.38778075612181
 20
-34.22771266505419
 10
-22.38778075612181
 20
-34.22771266505419
 10
-22.38778075612181
 20
-34.22771266505419
 10
-22.31732855344845
 20
-34.15019801663606
 10
-22.31732855344845
 20
-34.15019801663606
 10
-22.31732855344845
 20
-34.15019801663606
 10
-22.31732855344845
 20
-36.38675400566026
 10
-22.31732855344845
 20
-36.38675400566026
 10
-22.31732855344845
 20
-36.38675400566026
 10
-22.3455783364275
 20
-36.35161403171071
 10
-22.3455783364275
 20
-36.35161403171071
 10
-22.3455783364275
 20
-36.35161403171071
 10
-19.81257188089755
 20
-36.35161403171071
 10
-19.81257188089755
 20
-36.35161403171071
 10
-19.77502034010833
 20
-36.35161403171071
 10
-19.74194742344993
 20
-36.36573892320023
 10
-19.71369764047088
 20
-36.39398870617928
 10
-19.6856201122661
 20
-36.42223848915833
 10
-19.67149522077657
 20
-36.45496689626821
 10
-19.67149522077657
 20
-36.49251843705743
 10
-19.67149522077657
 20
-36.53489311152601
 10
-19.6856201122661
 20
-36.56899955682997
 10
-19.71369764047088
 20
-36.59483777296935
 10
-19.74194742344993
 20
-36.62102049865725
 10
-19.77502034010833
 20
-36.63376735195267
 10
-19.81257188089755
 20
-36.63376735195267
 10
-19.81257188089755
 20
-36.63376735195267
 10
-22.47253010505895
 20
-36.63376735195267
 10
-22.47253010505895
 20
-36.63376735195267
 10
-22.51025390062244
 20
-36.63376735195267
 10
-22.54298230773231
 20
-36.61964246046315
 10
-22.57123209071136
 20
-36.5913926774841
 10
-22.59948187369041
 20
-36.56314289450505
 10
-22.61360676517993
 20
-36.53041448739518
 10
-22.61360676517993
 20
-36.49251843705743
 10
-22.61360676517993
 20
-36.49251843705743
 10
-22.61360676517993
 20
-31.83612737919375
 10
-22.61360676517993
 20
-31.83612737919375
 10
-22.61360676517993
 20
-31.798231328856
 10
-22.59948187369041
 20
-31.76550292174613
 10
-22.57123209071136
 20
-31.73725313876708
 10
-22.54298230773231
 20
-31.70900335578803
 10
-22.51025390062244
 20
-31.69487846429851
 10
-22.47253010505895
 20
-31.69487846429851
 97
        0
 97
        1
330
DC
 75
     2
 76
     1
 98
        1
 10
0.0
 20
0.0
450
        0
451
        0
460
0.0
461
0.0
452
        0
462
0.0
453
        0
470

  0
SPLINE
  5
DE
330
BA
100
AcDbEntity
  8
0
100
AcDbSpline
210
0.0
220
0.0
230
1.0
 70
     9
 71
     3
 72
    77
 73
    73
 74
     0
 42
0.0000000001
 43
0.0000000001
 40
0.0
 40
0.0
 40
0.0
 40
0.0
 40
1.0
 40
1.0
 40
1.0
 40
2.0
 40
2.0
 40
2.0
 40
3.0
 40
3.0
 40
3.0
 40
4.0
 40
4.0
 40
4.0
 40
5.0
 40
5.0
 40
5.0
 40
6.0
 40
6.0
 40
6.0
 40
7.0
 40
7.0
 40
7.0
 40
8.0
 40
8.0
 40
8.0
 40
9.0
 40
9.0
 40
9.0
 40
10.0
 40
10.0
 40
10.0
 40
11.0
 40
11.0
 40
11.0
 40
12.0
 40
12.0
 40
12.0
 40
13.0
 40
13.0
 40
13.0
 40
14.0
 40
14.0
 40
14.0
 40
15.0
 40
15.0
 40
15.0
 40
16.0
 40
16.0
 40
16.0
 40
17.0
 40
17.0
 40
17.0
 40
18.0
 40
18.0
 40
18.0
 40
19.0
 40
19.0
 40
19.0
 40
20.0
 40
20.0
 40
20.0
 40
21.0
 40
21.0
 40
21.0
 40
22.0
 40
22.0
 40
22.0
 40
23.0
 40
23.0
 40
23.0
 40
24.0
 40
24.0
 40
24.0
 40
24.0
 10
-15.04300943634341
 20
-31.69487846429851
 30
0.0
 10
-15.00063476187484
 20
-31.69487846429851
 30
0.0
 10
-14.96790635476497
 20
-31.70796982714245
 30
0.0
 10
-14.94430745069101
 20
-31.73380804328183
 30
0.0
 10
-14.92070854661704
 20
-31.7596462594212
 30
0.0
 10
-14.90899522196719
 20
-31.7913411378855
 30
0.0
 10
-14.90899522196719
 20
-31.82889267867472
 30
0.0
 10
-14.90899522196719
 20
-31.82889267867472
 30
0.0
 10
-14.90899522196719
 20
-36.4783935455679
 30
0.0
 10
-14.90899522196719
 20
-36.4783935455679
 30
0.0
 10
-14.90899522196719
 20
-36.53041448739518
 30
0.0
 10
-14.92432589687656
 20
-36.56899955682997
 30
0.0
 10
-14.95481499192102
 20
-36.59483777296935
 30
0.0
 10
-14.98547634173974
 20
-36.62102049865725
 30
0.0
 10
-15.01958278704371
 20
-36.63376735195267
 30
0.0
 10
-15.05713432783294
 20
-36.63376735195267
 30
0.0
 10
-15.07608235300181
 20
-36.63376735195267
 30
0.0
 10
-15.095891652042
 20
-36.62928872782185
 30
0.0
 10
-15.11707898927628
 20
-36.61964246046315
 30
0.0
 10
-15.13826632651057
 20
-36.61034070265297
 30
0.0
 10
-15.15600856825961
 20
-36.59621581116345
 30
0.0
 10
-15.17013345974913
 20
-36.57726778599457
 30
0.0
 10
-15.17013345974913
 20
-36.57726778599457
 30
0.0
 10
-18.44383544460779
 20
-32.10415580794619
 30
0.0
 10
-18.44383544460779
 20
-32.10415580794619
 30
0.0
 10
-18.44383544460779
 20
-32.10415580794619
 30
0.0
 10
-18.34513345895538
 20
-32.05454643295859
 30
0.0
 10
-18.34513345895538
 20
-32.05454643295859
 30
0.0
 10
-18.34513345895538
 20
-32.05454643295859
 30
0.0
 10
-18.34513345895538
 20
-36.51387802906598
 30
0.0
 10
-18.34513345895538
 20
-36.51387802906598
 30
0.0
 10
-18.34513345895538
 20
-36.54695094572438
 30
0.0
 10
-18.35805256702507
 20
-36.5748562191549
 30
0.0
 10
-18.38389078316444
 20
-36.59862737800312
 30
0.0
 10
-18.40972899930382
 20
-36.62205402730283
 30
0.0
 10
-18.44159613254238
 20
-36.63376735195267
 30
0.0
 10
-18.4791476733316
 20
-36.63376735195267
 30
0.0
 10
-18.52152234780017
 20
-36.63376735195267
 30
0.0
 10
-18.55442300968431
 20
-36.62205402730283
 30
0.0
 10
-18.57784965898401
 20
-36.59862737800312
 30
0.0
 10
-18.60144856305797
 20
-36.5748562191549
 30
0.0
 10
-18.61316188770782
 20
-36.54695094572438
 30
0.0
 10
-18.61316188770782
 20
-36.51387802906598
 30
0.0
 10
-18.61316188770782
 20
-36.51387802906598
 30
0.0
 10
-18.61316188770782
 20
-31.83612737919375
 30
0.0
 10
-18.61316188770782
 20
-31.83612737919375
 30
0.0
 10
-18.61316188770782
 20
-31.784450946915
 30
0.0
 10
-18.5990369962183
 20
-31.74793293477135
 30
0.0
 10
-18.57078721323925
 20
-31.7265733427628
 30
0.0
 10
-18.5425374302602
 20
-31.70555826030278
 30
0.0
 10
-18.51445990205541
 20
-31.69487846429851
 30
0.0
 10
-18.48621011907636
 20
-31.69487846429851
 30
0.0
 10
-18.46743434868175
 20
-31.69487846429851
 30
0.0
 10
-18.44848632351288
 20
-31.69832355978376
 30
0.0
 10
-18.42971055311826
 20
-31.70555826030278
 30
0.0
 10
-18.41093478272366
 20
-31.71244845127328
 30
0.0
 10
-18.39439832439445
 20
-31.72553981411723
 30
0.0
 10
-18.38027343290493
 20
-31.74414332973757
 30
0.0
 10
-18.38027343290493
 20
-31.74414332973757
 30
0.0
 10
-15.1206963395358
 20
-36.18935003435544
 30
0.0
 10
-15.1206963395358
 20
-36.18935003435544
 30
0.0
 10
-15.1206963395358
 20
-36.18935003435544
 30
0.0
 10
-15.17702365071963
 20
-36.33025443970216
 30
0.0
 10
-15.17702365071963
 20
-36.33025443970216
 30
0.0
 10
-15.17702365071963
 20
-36.33025443970216
 30
0.0
 10
-15.17702365071963
 20
-31.82889267867472
 30
0.0
 10
-15.17702365071963
 20
-31.82889267867472
 30
0.0
 10
-15.17702365071963
 20
-31.7913411378855
 30
0.0
 10
-15.16307101400437
 20
-31.7596462594212
 30
0.0
 10
-15.13482123102532
 20
-31.73380804328183
 30
0.0
 10
-15.10657144804627
 20
-31.70796982714245
 30
0.0
 10
-15.07608235300181
 20
-31.69487846429851
 30
0.0
 10
-15.04300943634341
 20
-31.69487846429851
 30
0.0
  0
HATCH
  5
DF
330
BA
100
AcDbEntity
  8
0
 62
    18
420
        0
440
 33554687
100
AcDbHatch
 10
0.0
 20
0.0
 30
0.0
210
0.0
220
0.0
230
1.0
  2
SOLID
 70
     1
 71
     1
 91
        1
 92
        1
 93
        1
 72
     4
 94
        3
 73
     0
 74
     0
 95
       77
 96
       73
 40
0.0
 40
0.0
 40
0.0
 40
0.0
 40
1.0
 40
1.0
 40
1.0
 40
2.0
 40
2.0
 40
2.0
 40
3.0
 40
3.0
 40
3.0
 40
4.0
 40
4.0
 40
4.0
 40
5.0
 40
5.0
 40
5.0
 40
6.0
 40
6.0
 40
6.0
 40
7.0
 40
7.0
 40
7.0
 40
8.0
 40
8.0
 40
8.0
 40
9.0
 40
9.0
 40
9.0
 40
10.0
 40
10.0
 40
10.0
 40
11.0
 40
11.0
 40
11.0
 40
12.0
 40
12.0
 40
12.0
 40
13.0
 40
13.0
 40
13.0
 40
14.0
 40
14.0
 40
14.0
 40
15.0
 40
15.0
 40
15.0
 40
16.0
 40
16.0
 40
16.0
 40
17.0
 40
17.0
 40
17.0
 40
18.0
 40
18.0
 40
18.0
 40
19.0
 40
19.0
 40
19.0
 40
20.0
 40
20.0
 40
20.0
 40
21.0
 40
21.0
 40
21.0
 40
22.0
 40
22.0
 40
22.0
 40
23.0
 40
23.0
 40
23.0
 40
24.0
 40
24.0
 40
24.0
 40
24.0
 10
-15.04300943634341
 20
-31.69487846429851
 10
-15.00063476187484
 20
-31.69487846429851
 10
-14.96790635476497
 20
-31.70796982714245
 10
-14.94430745069101
 20
-31.73380804328183
 10
-14.92070854661704
 20
-31.7596462594212
 10
-14.90899522196719
 20
-31.7913411378855
 10
-14.90899522196719
 20
-31.82889267867472
 10
-14.90899522196719
 20
-31.82889267867472
 10
-14.90899522196719
 20
-36.4783935455679
 10
-14.90899522196719
 20
-36.4783935455679
 10
-14.90899522196719
 20
-36.53041448739518
 10
-14.92432589687656
 20
-36.56899955682997
 10
-14.95481499192102
 20
-36.59483777296935
 10
-14.98547634173974
 20
-36.62102049865725
 10
-15.01958278704371
 20
-36.63376735195267
 10
-15.05713432783294
 20
-36.63376735195267
 10
-15.07608235300181
 20
-36.63376735195267
 10
-15.095891652042
 20
-36.62928872782185
 10
-15.11707898927628
 20
-36.61964246046315
 10
-15.13826632651057
 20
-36.61034070265297
 10
-15.15600856825961
 20
-36.59621581116345
 10
-15.17013345974913
 20
-36.57726778599457
 10
-15.17013345974913
 20
-36.57726778599457
 10
-18.44383544460779
 20
-32.10415580794619
 10
-18.44383544460779
 20
-32.10415580794619
 10
-18.44383544460779
 20
-32.10415580794619
 10
-18.34513345895538
 20
-32.05454643295859
 10
-18.34513345895538
 20
-32.05454643295859
 10
-18.34513345895538
 20
-32.05454643295859
 10
-18.34513345895538
 20
-36.51387802906598
 10
-18.34513345895538
 20
-36.51387802906598
 10
-18.34513345895538
 20
-36.54695094572438
 10
-18.35805256702507
 20
-36.5748562191549
 10
-18.38389078316444
 20
-36.59862737800312
 10
-18.40972899930382
 20
-36.62205402730283
 10
-18.44159613254238
 20
-36.63376735195267
 10
-18.4791476733316
 20
-36.63376735195267
 10
-18.52152234780017
 20
-36.63376735195267
 10
-18.55442300968431
 20
-36.62205402730283
 10
-18.57784965898401
 20
-36.59862737800312
 10
-18.60144856305797
 20
-36.5748562191549
 10
-18.61316188770782
 20
-36.54695094572438
 10
-18.61316188770782
 20
-36.51387802906598
 10
-18.61316188770782
 20
-36.51387802906598
 10
-18.61316188770782
 20
-31.83612737919375
 10
-18.61316188770782
 20
-31.83612737919375
 10
-18.61316188770782
 20
-31.784450946915
 10
-18.5990369962183
 20
-31.74793293477135
 10
-18.57078721323925
 20
-31.7265733427628
 10
-18.5425374302602
 20
-31.70555826030278
 10
-18.51445990205541
 20
-31.69487846429851
 10
-18.48621011907636
 20
-31.69487846429851
 10
-18.46743434868175
 20
-31.69487846429851
 10
-18.44848632351288
 20
-31.69832355978376
 10
-18.42971055311826
 20
-31.70555826030278
 10
-18.41093478272366
 20
-31.71244845127328
 10
-18.39439832439445
 20
-31.72553981411723
 10
-18.38027343290493
 20
-31.74414332973757
 10
-18.38027343290493
 20
-31.74414332973757
 10
-15.1206963395358
 20
-36.18935003435544
 10
-15.1206963395358
 20
-36.18935003435544
 10
-15.1206963395358
 20
-36.18935003435544
 10
-15.17702365071963
 20
-36.33025443970216
 10
-15.17702365071963
 20
-36.33025443970216
 10
-15.17702365071963
 20
-36.33025443970216
 10
-15.17702365071963
 20
-31.82889267867472
 10
-15.17702365071963
 20
-31.82889267867472
 10
-15.17702365071963
 20
-31.7913411378855
 10
-15.16307101400437
 20
-31.7596462594212
 10
-15.13482123102532
 20
-31.73380804328183
 10
-15.10657144804627
 20
-31.70796982714245
 10
-15.07608235300181
 20
-31.69487846429851
 10
-15.04300943634341
 20
-31.69487846429851
 97
        0
 97
        1
330
DE
 75
     2
 76
     1
 98
        1
 10
0.0
 20
0.0
450
        0
451
        0
460
0.0
461
0.0
452
        0
462
0.0
453
        0
470

  0
SPLINE
  5
E0
330
BA
100
AcDbEntity
  8
0
100
AcDbSpline
210
0.0
220
0.0
230
1.0
 70
     9
 71
     3
 72
   104
 73
   100
 74
     0
 42
0.0000000001
 43
0.0000000001
 40
0.0
 40
0.0
 40
0.0
 40
0.0
 40
1.0
 40
1.0
 40
1.0
 40
2.0
 40
2.0
 40
2.0
 40
3.0
 40
3.0
 40
3.0
 40
4.0
 40
4.0
 40
4.0
 40
5.0
 40
5.0
 40
5.0
 40
6.0
 40
6.0
 40
6.0
 40
7.0
 40
7.0
 40
7.0
 40
8.0
 40
8.0
 40
8.0
 40
9.0
 40
9.0
 40
9.0
 40
10.0
 40
10.0
 40
10.0
 40
11.0
 40
11.0
 40
11.0
 40
12.0
 40
12.0
 40
12.0
 40
13.0
 40
13.0
 40
13.0
 40
14.0
 40
14.0
 40
14.0
 40
15.0
 40
15.0
 40
15.0
 40
16.0
 40
16.0
 40
16.0
 40
17.0
 40
17.0
 40
17.0
 40
18.0
 40
18.0
 40
18.0
 40
19.0
 40
19.0
 40
19.0
 40
20.0
 40
20.0
 40
20.0
 40
21.0
 40
21.0
 40
21.0
 40
22.0
 40
22.0
 40
22.0
 40
23.0
 40
23.0
 40
23.0
 40
24.0
 40
24.0
 40
24.0
 40
25.0
 40
25.0
 40
25.0
 40
26.0
 40
26.0
 40
26.0
 40
27.0
 40
27.0
 40
27.0
 40
28.0
 40
28.0
 40
28.0
 40
29.0
 40
29.0
 40
29.0
 40
30.0
 40
30.0
 40
30.0
 40
31.0
 40
31.0
 40
31.0
 40
32.0
 40
32.0
 40
32.0
 40
33.0
 40
33.0
 40
33.0
 40
33.0
 10
-9.843154565681572
 20
-32.10415580794619
 30
0.0
 10
-9.805430770118087
 20
-32.13240559092523
 30
0.0
 10
-9.784415687658063
 20
-32.16410046938953
 30
0.0
 10
-9.779592553978712
 20
-32.19924044333908
 30
0.0
 10
-9.774941675073625
 20
-32.23472492683715
 30
0.0
 10
-9.784415687658063
 20
-32.27124293898081
 30
0.0
 10
-9.807842336957762
 20
-32.30879447977002
 30
0.0
 10
-9.831441241031724
 20
-32.3415228868799
 30
0.0
 10
-9.860724552656346
 20
-32.3594373834032
 30
0.0
 10
-9.896036781380157
 20
-32.36150444069435
 30
0.0
 10
-9.931349010103968
 20
-32.36391600753402
 30
0.0
 10
-9.965455455407942
 20
-32.35564777836942
 30
0.0
 10
-9.998356117292077
 20
-32.33704426274908
 30
0.0
 10
-10.19593234337115
 20
-32.20061848153318
 30
0.0
 10
-10.41107855642501
 20
-32.09244248329634
 30
0.0
 10
-10.64396701122789
 20
-32.01251626803854
 30
0.0
 10
-10.87668321125652
 20
-31.93259005278074
 30
0.0
 10
-11.12490234096877
 20
-31.89228243560332
 30
0.0
 10
-11.38827989081612
 20
-31.89228243560332
 30
0.0
 10
-11.68938123622696
 20
-31.89228243560332
 30
0.0
 10
-11.97032877304908
 20
-31.94774847291584
 30
0.0
 10
-12.23146701083102
 20
-32.05833603799236
 30
0.0
 10
-12.4924329938387
 20
-32.16892360306888
 30
0.0
 10
-12.72170409838207
 20
-32.32533093809923
 30
0.0
 10
-12.91928032446115
 20
-32.52755804308339
 30
0.0
 10
-13.11685655054023
 20
-32.72978514806756
 30
0.0
 10
-13.27205810215073
 20
-32.96956379384094
 30
0.0
 10
-13.38505723406693
 20
-33.24723848995208
 30
0.0
 10
-13.49788411120886
 20
-33.52456867651469
 30
0.0
 10
-13.55438367716696
 20
-33.83049315560488
 30
0.0
 10
-13.55438367716696
 20
-34.16432290812559
 30
0.0
 10
-13.55438367716696
 20
-34.49849717019482
 30
0.0
 10
-13.49788411120886
 20
-34.80407713973649
 30
0.0
 10
-13.38505723406693
 20
-35.0814073262991
 30
0.0
 10
-13.27205810215073
 20
-35.35908202241023
 30
0.0
 10
-13.11685655054023
 20
-35.59886066818362
 30
0.0
 10
-12.91928032446115
 20
-35.80108777316779
 30
0.0
 10
-12.72170409838207
 20
-36.00365938770047
 30
0.0
 10
-12.4924329938387
 20
-36.16006672273082
 30
0.0
 10
-12.23146701083102
 20
-36.27030977825882
 30
0.0
 10
-11.97032877304908
 20
-36.38089734333533
 30
0.0
 10
-11.68938123622696
 20
-36.43636338064786
 30
0.0
 10
-11.38827989081612
 20
-36.43636338064786
 30
0.0
 10
-11.12490234096877
 20
-36.43636338064786
 30
0.0
 10
-10.87788899467636
 20
-36.39640027301896
 30
0.0
 10
-10.64741210671314
 20
-36.31612954821264
 30
0.0
 10
-10.41710747352419
 20
-36.23620333295484
 30
0.0
 10
-10.20299478911592
 20
-36.13043890155767
 30
0.0
 10
-10.00541856303684
 20
-35.99883625402113
 30
0.0
 10
-9.972517901152704
 20
-35.97540960472143
 30
0.0
 10
-9.937205672428893
 20
-35.96576333736273
 30
0.0
 10
-9.899481876865408
 20
-35.97058647104208
 30
0.0
 10
-9.861930336076184
 20
-35.97540960472143
 30
0.0
 10
-9.831441241031724
 20
-35.99401312034178
 30
0.0
 10
-9.807842336957762
 20
-36.02708603700018
 30
0.0
 10
-9.784415687658063
 20
-36.05981444411005
 30
0.0
 10
-9.774941675073625
 20
-36.09529892760812
 30
0.0
 10
-9.779592553978712
 20
-36.13285046839735
 30
0.0
 10
-9.784415687658063
 20
-36.17040200918657
 30
0.0
 10
-9.803191458052674
 20
-36.20106335900529
 30
0.0
 10
-9.836092119936811
 20
-36.22449000830499
 30
0.0
 10
-9.948918997078742
 20
-36.30441622356279
 30
0.0
 10
-10.09120144061956
 20
-36.38227538152943
 30
0.0
 10
-10.26293945055926
 20
-36.45737846310788
 30
0.0
 10
-10.43467746049897
 20
-36.53282605423485
 30
0.0
 10
-10.61692301166869
 20
-36.5927707156782
 30
0.0
 10
-10.80967610406841
 20
-36.63721244743792
 30
0.0
 10
-11.0026014512424
 20
-36.68199868874617
 30
0.0
 10
-11.19552679841639
 20
-36.70439180940029
 30
0.0
 10
-11.38827989081612
 20
-36.70439180940029
 30
0.0
 10
-11.72693277701618
 20
-36.70439180940029
 30
0.0
 10
-12.04439832598195
 20
-36.64065754292317
 30
0.0
 10
-12.3408487924877
 20
-36.51387802906598
 30
0.0
 10
-12.63712700421919
 20
-36.38675400566026
 30
0.0
 10
-12.89809298722686
 20
-36.20933158816989
 30
0.0
 10
-13.12391899628499
 20
-35.98126626704635
 30
0.0
 10
-13.34974500534312
 20
-35.75320094592282
 30
0.0
 10
-13.52733967760775
 20
-35.48482800762185
 30
0.0
 10
-13.65670301307888
 20
-35.17683647124052
 30
0.0
 10
-13.78606634855001
 20
-34.86884493485918
 30
0.0
 10
-13.85066188889845
 20
-34.5312255773047
 30
0.0
 10
-13.85066188889845
 20
-34.16432290812559
 30
0.0
 10
-13.85066188889845
 20
-33.79742023894648
 30
0.0
 10
-13.78606634855001
 20
-33.46014539094052
 30
0.0
 10
-13.65670301307888
 20
-33.15180934501066
 30
0.0
 10
-13.52733967760775
 20
-32.84381780862933
 30
0.0
 10
-13.34974500534312
 20
-32.57578937987689
 30
0.0
 10
-13.12391899628499
 20
-32.34737954920483
 30
0.0
 10
-12.89809298722686
 20
-32.11931422808129
 30
0.0
 10
-12.63712700421919
 20
-31.94189181059092
 30
0.0
 10
-12.3408487924877
 20
-31.8147677871852
 30
0.0
 10
-12.04439832598195
 20
-31.687988273328
 30
0.0
 10
-11.72693277701618
 20
-31.62425400685088
 30
0.0
 10
-11.38827989081612
 20
-31.62425400685088
 30
0.0
 10
-11.10147569166907
 20
-31.62425400685088
 30
0.0
 10
-10.82500677897777
 20
-31.66662868131945
 30
0.0
 10
-10.55921766229075
 20
-31.7513780302566
 30
0.0
 10
-10.29360080037799
 20
-31.83612737919375
 30
0.0
 10
-10.05485568325017
 20
-31.95360513524077
 30
0.0
 10
-9.843154565681572
 20
-32.10415580794619
 30
0.0
  0
HATCH
  5
E1
330
BA
100
AcDbEntity
  8
0
 62
    18
420
        0
440
 33554687
100
AcDbHatch
 10
0.0
 20
0.0
 30
0.0
210
0.0
220
0.0
230
1.0
  2
SOLID
 70
     1
 71
     1
 91
        1
 92
        1
 93
        1
 72
     4
 94
        3
 73
     0
 74
     0
 95
      104
 96
      100
 40
0.0
 40
0.0
 40
0.0
 40
0.0
 40
1.0
 40
1.0
 40
1.0
 40
2.0
 40
2.0
 40
2.0
 40
3.0
 40
3.0
 40
3.0
 40
4.0
 40
4.0
 40
4.0
 40
5.0
 40
5.0
 40
5.0
 40
6.0
 40
6.0
 40
6.0
 40
7.0
 40
7.0
 40
7.0
 40
8.0
 40
8.0
 40
8.0
 40
9.0
 40
9.0
 40
9.0
 40
10.0
 40
10.0
 40
10.0
 40
11.0
 40
11.0
 40
11.0
 40
12.0
 40
12.0
 40
12.0
 40
13.0
 40
13.0
 40
13.0
 40
14.0
 40
14.0
 40
14.0
 40
15.0
 40
15.0
 40
15.0
 40
16.0
 40
16.0
 40
16.0
 40
17.0
 40
17.0
 40
17.0
 40
18.0
 40
18.0
 40
18.0
 40
19.0
 40
19.0
 40
19.0
 40
20.0
 40
20.0
 40
20.0
 40
21.0
 40
21.0
 40
21.0
 40
22.0
 40
22.0
 40
22.0
 40
23.0
 40
23.0
 40
23.0
 40
24.0
 40
24.0
 40
24.0
 40
25.0
 40
25.0
 40
25.0
 40
26.0
 40
26.0
 40
26.0
 40
27.0
 40
27.0
 40
27.0
 40
28.0
 40
28.0
 40
28.0
 40
29.0
 40
29.0
 40
29.0
 40
30.0
 40
30.0
 40
30.0
 40
31.0
 40
31.0
 40
31.0
 40
32.0
 40
32.0
 40
32.0
 40
33.0
 40
33.0
 40
33.0
 40
33.0
 10
-9.843154565681572
 20
-32.10415580794619
 10
-9.805430770118087
 20
-32.13240559092523
 10
-9.784415687658063
 20
-32.16410046938953
 10
-9.779592553978712
 20
-32.19924044333908
 10
-9.774941675073625
 20
-32.23472492683715
 10
-9.784415687658063
 20
-32.27124293898081
 10
-9.807842336957762
 20
-32.30879447977002
 10
-9.831441241031724
 20
-32.3415228868799
 10
-9.860724552656346
 20
-32.3594373834032
 10
-9.896036781380157
 20
-32.36150444069435
 10
-9.931349010103968
 20
-32.36391600753402
 10
-9.965455455407942
 20
-32.35564777836942
 10
-9.998356117292077
 20
-32.33704426274908
 10
-10.19593234337115
 20
-32.20061848153318
 10
-10.41107855642501
 20
-32.09244248329634
 10
-10.64396701122789
 20
-32.01251626803854
 10
-10.87668321125652
 20
-31.93259005278074
 10
-11.12490234096877
 20
-31.89228243560332
 10
-11.38827989081612
 20
-31.89228243560332
 10
-11.68938123622696
 20
-31.89228243560332
 10
-11.97032877304908
 20
-31.94774847291584
 10
-12.23146701083102
 20
-32.05833603799236
 10
-12.4924329938387
 20
-32.16892360306888
 10
-12.72170409838207
 20
-32.32533093809923
 10
-12.91928032446115
 20
-32.52755804308339
 10
-13.11685655054023
 20
-32.72978514806756
 10
-13.27205810215073
 20
-32.96956379384094
 10
-13.38505723406693
 20
-33.24723848995208
 10
-13.49788411120886
 20
-33.52456867651469
 10
-13.55438367716696
 20
-33.83049315560488
 10
-13.55438367716696
 20
-34.16432290812559
 10
-13.55438367716696
 20
-34.49849717019482
 10
-13.49788411120886
 20
-34.80407713973649
 10
-13.38505723406693
 20
-35.0814073262991
 10
-13.27205810215073
 20
-35.35908202241023
 10
-13.11685655054023
 20
-35.59886066818362
 10
-12.91928032446115
 20
-35.80108777316779
 10
-12.72170409838207
 20
-36.00365938770047
 10
-12.4924329938387
 20
-36.16006672273082
 10
-12.23146701083102
 20
-36.27030977825882
 10
-11.97032877304908
 20
-36.38089734333533
 10
-11.68938123622696
 20
-36.43636338064786
 10
-11.38827989081612
 20
-36.43636338064786
 10
-11.12490234096877
 20
-36.43636338064786
 10
-10.87788899467636
 20
-36.39640027301896
 10
-10.64741210671314
 20
-36.31612954821264
 10
-10.41710747352419
 20
-36.23620333295484
 10
-10.20299478911592
 20
-36.13043890155767
 10
-10.00541856303684
 20
-35.99883625402113
 10
-9.972517901152704
 20
-35.97540960472143
 10
-9.937205672428893
 20
-35.96576333736273
 10
-9.899481876865408
 20
-35.97058647104208
 10
-9.861930336076184
 20
-35.97540960472143
 10
-9.831441241031724
 20
-35.99401312034178
 10
-9.807842336957762
 20
-36.02708603700018
 10
-9.784415687658063
 20
-36.05981444411005
 10
-9.774941675073625
 20
-36.09529892760812
 10
-9.779592553978712
 20
-36.13285046839735
 10
-9.784415687658063
 20
-36.17040200918657
 10
-9.803191458052674
 20
-36.20106335900529
 10
-9.836092119936811
 20
-36.22449000830499
 10
-9.948918997078742
 20
-36.30441622356279
 10
-10.09120144061956
 20
-36.38227538152943
 10
-10.26293945055926
 20
-36.45737846310788
 10
-10.43467746049897
 20
-36.53282605423485
 10
-10.61692301166869
 20
-36.5927707156782
 10
-10.80967610406841
 20
-36.63721244743792
 10
-11.0026014512424
 20
-36.68199868874617
 10
-11.19552679841639
 20
-36.70439180940029
 10
-11.38827989081612
 20
-36.70439180940029
 10
-11.72693277701618
 20
-36.70439180940029
 10
-12.04439832598195
 20
-36.64065754292317
 10
-12.3408487924877
 20
-36.51387802906598
 10
-12.63712700421919
 20
-36.38675400566026
 10
-12.89809298722686
 20
-36.20933158816989
 10
-13.12391899628499
 20
-35.98126626704635
 10
-13.34974500534312
 20
-35.75320094592282
 10
-13.52733967760775
 20
-35.48482800762185
 10
-13.65670301307888
 20
-35.17683647124052
 10
-13.78606634855001
 20
-34.86884493485918
 10
-13.85066188889845
 20
-34.5312255773047
 10
-13.85066188889845
 20
-34.16432290812559
 10
-13.85066188889845
 20
-33.79742023894648
 10
-13.78606634855001
 20
-33.46014539094052
 10
-13.65670301307888
 20
-33.15180934501066
 10
-13.52733967760775
 20
-32.84381780862933
 10
-13.34974500534312
 20
-32.57578937987689
 10
-13.12391899628499
 20
-32.34737954920483
 10
-12.89809298722686
 20
-32.11931422808129
 10
-12.63712700421919
 20
-31.94189181059092
 10
-12.3408487924877
 20
-31.8147677871852
 10
-12.04439832598195
 20
-31.687988273328
 10
-11.72693277701618
 20
-31.62425400685088
 10
-11.38827989081612
 20
-31.62425400685088
 10
-11.10147569166907
 20
-31.62425400685088
 10
-10.82500677897777
 20
-31.66662868131945
 10
-10.55921766229075
 20
-31.7513780302566
 10
-10.29360080037799
 20
-31.83612737919375
 10
-10.05485568325017
 20
-31.95360513524077
 10
-9.843154565681572
 20
-32.10415580794619
 97
        0
 97
        1
330
E0
 75
     2
 76
     1
 98
        1
 10
0.0
 20
0.0
450
        0
451
        0
460
0.0
461
0.0
452
        0
462
0.0
453
        0
470

  0
SPLINE
  5
E2
330
BA
100
AcDbEntity
  8
0
100
AcDbSpline
210
0.0
220
0.0
230
1.0
 70
    11
 71
     3
 72
    35
 73
    31
 74
     0
 42
0.0000000001
 43
0.0000000001
 40
0.0
 40
0.0
 40
0.0
 40
0.0
 40
1.0
 40
1.0
 40
1.0
 40
2.0
 40
2.0
 40
2.0
 40
3.0
 40
3.0
 40
3.0
 40
4.0
 40
4.0
 40
4.0
 40
5.0
 40
5.0
 40
5.0
 40
6.0
 40
6.0
 40
6.0
 40
7.0
 40
7.0
 40
7.0
 40
8.0
 40
8.0
 40
8.0
 40
9.0
 40
9.0
 40
9.0
 40
10.0
 40
10.0
 40
10.0
 40
10.0
 10
-5.306480575930324
 20
-31.69487846429851
 30
0.0
 10
-5.264105901461751
 20
-31.69487846429851
 30
0.0
 10
-5.22879367273794
 20
-31.70900335578803
 30
0.0
 10
-5.200716144533154
 20
-31.73725313876708
 30
0.0
 10
-5.172466361554105
 20
-31.76550292174613
 30
0.0
 10
-5.158341470064581
 20
-31.80064289569568
 30
0.0
 10
-5.158341470064581
 20
-31.84301757016425
 30
0.0
 10
-5.158341470064581
 20
-31.84301757016425
 30
0.0
 10
-5.158341470064581
 20
-36.48562824608692
 30
0.0
 10
-5.158341470064581
 20
-36.48562824608692
 30
0.0
 10
-5.162992348969669
 20
-36.5280029205555
 30
0.0
 10
-5.179528807298868
 20
-36.56314289450505
 30
0.0
 10
-5.207778590277916
 20
-36.5913926774841
 30
0.0
 10
-5.235856118482702
 20
-36.61964246046315
 30
0.0
 10
-5.268929035141101
 20
-36.63376735195267
 30
0.0
 10
-5.306480575930324
 20
-36.63376735195267
 30
0.0
 10
-5.353506129303984
 20
-36.63376735195267
 30
0.0
 10
-5.390024141447633
 20
-36.61964246046315
 30
0.0
 10
-5.415862357587006
 20
-36.5913926774841
 30
0.0
 10
-5.441700573726381
 20
-36.56314289450505
 30
0.0
 10
-5.454619681796067
 20
-36.5280029205555
 30
0.0
 10
-5.454619681796067
 20
-36.48562824608692
 30
0.0
 10
-5.454619681796067
 20
-36.48562824608692
 30
0.0
 10
-5.454619681796067
 20
-31.84301757016425
 30
0.0
 10
-5.454619681796067
 20
-31.84301757016425
 30
0.0
 10
-5.454619681796067
 20
-31.80064289569568
 30
0.0
 10
-5.440494790306543
 20
-31.76550292174613
 30
0.0
 10
-5.412245007327494
 20
-31.73725313876708
 30
0.0
 10
-5.384167479122708
 20
-31.70900335578803
 30
0.0
 10
-5.348855250398897
 20
-31.69487846429851
 30
0.0
 10
-5.306480575930324
 20
-31.69487846429851
 30
0.0
  0
SPLINE
  5
E3
330
BA
100
AcDbEntity
  8
0
100
AcDbSpline
210
0.0
220
0.0
230
1.0
 70
    11
 71
     3
 72
    17
 73
    13
 74
     0
 42
0.0000000001
 43
0.0000000001
 40
0.0
 40
0.0
 40
0.0
 40
0.0
 40
1.0
 40
1.0
 40
1.0
 40
2.0
 40
2.0
 40
2.0
 40
3.0
 40
3.0
 40
3.0
 40
4.0
 40
4.0
 40
4.0
 40
4.0
 10
-8.714369029939463
 20
-33.95279404533125
 30
0.0
 10
-8.714369029939463
 20
-33.95279404533125
 30
0.0
 10
-5.2923556844408
 20
-33.95279404533125
 30
0.0
 10
-5.2923556844408
 20
-33.95279404533125
 30
0.0
 10
-5.2923556844408
 20
-33.95279404533125
 30
0.0
 10
-5.306480575930324
 20
-34.23494736557322
 30
0.0
 10
-5.306480575930324
 20
-34.23494736557322
 30
0.0
 10
-5.306480575930324
 20
-34.23494736557322
 30
0.0
 10
-8.756571449633774
 20
-34.23494736557322
 30
0.0
 10
-8.756571449633774
 20
-34.23494736557322
 30
0.0
 10
-8.756571449633774
 20
-34.23494736557322
 30
0.0
 10
-8.714369029939463
 20
-33.95279404533125
 30
0.0
 10
-8.714369029939463
 20
-33.95279404533125
 30
0.0
  0
SPLINE
  5
E4
330
BA
100
AcDbEntity
  8
0
100
AcDbSpline
210
0.0
220
0.0
230
1.0
 70
    11
 71
     3
 72
    35
 73
    31
 74
     0
 42
0.0000000001
 43
0.0000000001
 40
0.0
 40
0.0
 40
0.0
 40
0.0
 40
1.0
 40
1.0
 40
1.0
 40
2.0
 40
2.0
 40
2.0
 40
3.0
 40
3.0
 40
3.0
 40
4.0
 40
4.0
 40
4.0
 40
5.0
 40
5.0
 40
5.0
 40
6.0
 40
6.0
 40
6.0
 40
7.0
 40
7.0
 40
7.0
 40
8.0
 40
8.0
 40
8.0
 40
9.0
 40
9.0
 40
9.0
 40
10.0
 40
10.0
 40
10.0
 40
10.0
 10
-8.679056801215653
 20
-31.69487846429851
 30
0.0
 10
-8.636682126747079
 20
-31.69487846429851
 30
0.0
 10
-8.601369898023268
 20
-31.70900335578803
 30
0.0
 10
-8.57312011504422
 20
-31.73725313876708
 30
0.0
 10
-8.545042586839434
 20
-31.76550292174613
 30
0.0
 10
-8.530917695349909
 20
-31.80064289569568
 30
0.0
 10
-8.530917695349909
 20
-31.84301757016425
 30
0.0
 10
-8.530917695349909
 20
-31.84301757016425
 30
0.0
 10
-8.530917695349909
 20
-36.48562824608692
 30
0.0
 10
-8.530917695349909
 20
-36.48562824608692
 30
0.0
 10
-8.535568574254996
 20
-36.5280029205555
 30
0.0
 10
-8.552105032584195
 20
-36.56314289450505
 30
0.0
 10
-8.580182560788982
 20
-36.5913926774841
 30
0.0
 10
-8.608432343768031
 20
-36.61964246046315
 30
0.0
 10
-8.641505260426429
 20
-36.63376735195267
 30
0.0
 10
-8.679056801215653
 20
-36.63376735195267
 30
0.0
 10
-8.726082354589312
 20
-36.63376735195267
 30
0.0
 10
-8.762600366732961
 20
-36.61964246046315
 30
0.0
 10
-8.788438582872334
 20
-36.5913926774841
 30
0.0
 10
-8.814276799011709
 20
-36.56314289450505
 30
0.0
 10
-8.827195907081396
 20
-36.5280029205555
 30
0.0
 10
-8.827195907081396
 20
-36.48562824608692
 30
0.0
 10
-8.827195907081396
 20
-36.48562824608692
 30
0.0
 10
-8.827195907081396
 20
-31.84301757016425
 30
0.0
 10
-8.827195907081396
 20
-31.84301757016425
 30
0.0
 10
-8.827195907081396
 20
-31.80064289569568
 30
0.0
 10
-8.813071015591871
 20
-31.76550292174613
 30
0.0
 10
-8.784821232612822
 20
-31.73725313876708
 30
0.0
 10
-8.756571449633774
 20
-31.70900335578803
 30
0.0
 10
-8.721431475684225
 20
-31.69487846429851
 30
0.0
 10
-8.679056801215653
 20
-31.69487846429851
 30
0.0
  0
HATCH
  5
E5
330
BA
100
AcDbEntity
  8
0
 62
    18
420
        0
440
 33554687
100
AcDbHatch
 10
0.0
 20
0.0
 30
0.0
210
0.0
220
0.0
230
1.0
  2
SOLID
 70
     1
 71
     1
 91
        3
 92
        1
 93
        1
 72
     4
 94
        3
 73
     0
 74
     0
 95
       35
 96
       31
 40
0.0
 40
0.0
 40
0.0
 40
0.0
 40
1.0
 40
1.0
 40
1.0
 40
2.0
 40
2.0
 40
2.0
 40
3.0
 40
3.0
 40
3.0
 40
4.0
 40
4.0
 40
4.0
 40
5.0
 40
5.0
 40
5.0
 40
6.0
 40
6.0
 40
6.0
 40
7.0
 40
7.0
 40
7.0
 40
8.0
 40
8.0
 40
8.0
 40
9.0
 40
9.0
 40
9.0
 40
10.0
 40
10.0
 40
10.0
 40
10.0
 10
-5.306480575930324
 20
-31.69487846429851
 10
-5.264105901461751
 20
-31.69487846429851
 10
-5.22879367273794
 20
-31.70900335578803
 10
-5.200716144533154
 20
-31.73725313876708
 10
-5.172466361554105
 20
-31.76550292174613
 10
-5.158341470064581
 20
-31.80064289569568
 10
-5.158341470064581
 20
-31.84301757016425
 10
-5.158341470064581
 20
-31.84301757016425
 10
-5.158341470064581
 20
-36.48562824608692
 10
-5.158341470064581
 20
-36.48562824608692
 10
-5.162992348969669
 20
-36.5280029205555
 10
-5.179528807298868
 20
-36.56314289450505
 10
-5.207778590277916
 20
-36.5913926774841
 10
-5.235856118482702
 20
-36.61964246046315
 10
-5.268929035141101
 20
-36.63376735195267
 10
-5.306480575930324
 20
-36.63376735195267
 10
-5.353506129303984
 20
-36.63376735195267
 10
-5.390024141447633
 20
-36.61964246046315
 10
-5.415862357587006
 20
-36.5913926774841
 10
-5.441700573726381
 20
-36.56314289450505
 10
-5.454619681796067
 20
-36.5280029205555
 10
-5.454619681796067
 20
-36.48562824608692
 10
-5.454619681796067
 20
-36.48562824608692
 10
-5.454619681796067
 20
-31.84301757016425
 10
-5.454619681796067
 20
-31.84301757016425
 10
-5.454619681796067
 20
-31.80064289569568
 10
-5.440494790306543
 20
-31.76550292174613
 10
-5.412245007327494
 20
-31.73725313876708
 10
-5.384167479122708
 20
-31.70900335578803
 10
-5.348855250398897
 20
-31.69487846429851
 10
-5.306480575930324
 20
-31.69487846429851
 97
        0
 97
        1
330
E2
 92
        1
 93
        1
 72
     4
 94
        3
 73
     0
 74
     0
 95
       17
 96
       13
 40
0.0
 40
0.0
 40
0.0
 40
0.0
 40
1.0
 40
1.0
 40
1.0
 40
2.0
 40
2.0
 40
2.0
 40
3.0
 40
3.0
 40
3.0
 40
4.0
 40
4.0
 40
4.0
 40
4.0
 10
-8.714369029939463
 20
-33.95279404533125
 10
-8.714369029939463
 20
-33.95279404533125
 10
-5.2923556844408
 20
-33.95279404533125
 10
-5.2923556844408
 20
-33.95279404533125
 10
-5.2923556844408
 20
-33.95279404533125
 10
-5.306480575930324
 20
-34.23494736557322
 10
-5.306480575930324
 20
-34.23494736557322
 10
-5.306480575930324
 20
-34.23494736557322
 10
-8.756571449633774
 20
-34.23494736557322
 10
-8.756571449633774
 20
-34.23494736557322
 10
-8.756571449633774
 20
-34.23494736557322
 10
-8.714369029939463
 20
-33.95279404533125
 10
-8.714369029939463
 20
-33.95279404533125
 97
        0
 97
        1
330
E3
 92
        1
 93
        1
 72
     4
 94
        3
 73
     0
 74
     0
 95
       35
 96
       31
 40
0.0
 40
0.0
 40
0.0
 40
0.0
 40
1.0
 40
1.0
 40
1.0
 40
2.0
 40
2.0
 40
2.0
 40
3.0
 40
3.0
 40
3.0
 40
4.0
 40
4.0
 40
4.0
 40
5.0
 40
5.0
 40
5.0
 40
6.0
 40
6.0
 40
6.0
 40
7.0
 40
7.0
 40
7.0
 40
8.0
 40
8.0
 40
8.0
 40
9.0
 40
9.0
 40
9.0
 40
10.0
 40
10.0
 40
10.0
 40
10.0
 10
-8.679056801215653
 20
-31.69487846429851
 10
-8.636682126747079
 20
-31.69487846429851
 10
-8.601369898023268
 20
-31.70900335578803
 10
-8.57312011504422
 20
-31.73725313876708
 10
-8.545042586839434
 20
-31.76550292174613
 10
-8.530917695349909
 20
-31.80064289569568
 10
-8.530917695349909
 20
-31.84301757016425
 10
-8.530917695349909
 20
-31.84301757016425
 10
-8.530917695349909
 20
-36.48562824608692
 10
-8.530917695349909
 20
-36.48562824608692
 10
-8.535568574254996
 20
-36.5280029205555
 10
-8.552105032584195
 20
-36.56314289450505
 10
-8.580182560788982
 20
-36.5913926774841
 10
-8.608432343768031
 20
-36.61964246046315
 10
-8.641505260426429
 20
-36.63376735195267
 10
-8.679056801215653
 20
-36.63376735195267
 10
-8.726082354589312
 20
-36.63376735195267
 10
-8.762600366732961
 20
-36.61964246046315
 10
-8.788438582872334
 20
-36.5913926774841
 10
-8.814276799011709
 20
-36.56314289450505
 10
-8.827195907081396
 20
-36.5280029205555
 10
-8.827195907081396
 20
-36.48562824608692
 10
-8.827195907081396
 20
-36.48562824608692
 10
-8.827195907081396
 20
-31.84301757016425
 10
-8.827195907081396
 20
-31.84301757016425
 10
-8.827195907081396
 20
-31.80064289569568
 10
-8.813071015591871
 20
-31.76550292174613
 10
-8.784821232612822
 20
-31.73725313876708
 10
-8.756571449633774
 20
-31.70900335578803
 10
-8.721431475684225
 20
-31.69487846429851
 10
-8.679056801215653
 20
-31.69487846429851
 97
        0
 97
        1
330
E4
 75
     2
 76
     1
 98
        1
 10
0.0
 20
0.0
450
        0
451
        0
460
0.0
461
0.0
452
        0
462
0.0
453
        0
470

  0
SPLINE
  5
E6
330
BA
100
AcDbEntity
  8
0
100
AcDbSpline
210
0.0
220
0.0
230
1.0
 70
     9
 71
     3
 72
    50
 73
    46
 74
     0
 42
0.0000000001
 43
0.0000000001
 40
0.0
 40
0.0
 40
0.0
 40
0.0
 40
1.0
 40
1.0
 40
1.0
 40
2.0
 40
2.0
 40
2.0
 40
3.0
 40
3.0
 40
3.0
 40
4.0
 40
4.0
 40
4.0
 40
5.0
 40
5.0
 40
5.0
 40
6.0
 40
6.0
 40
6.0
 40
7.0
 40
7.0
 40
7.0
 40
8.0
 40
8.0
 40
8.0
 40
9.0
 40
9.0
 40
9.0
 40
10.0
 40
10.0
 40
10.0
 40
11.0
 40
11.0
 40
11.0
 40
12.0
 40
12.0
 40
12.0
 40
13.0
 40
13.0
 40
13.0
 40
14.0
 40
14.0
 40
14.0
 40
15.0
 40
15.0
 40
15.0
 40
15.0
 10
0.8883178708716705
 20
-36.35161403171071
 30
0.0
 10
0.9258694116608937
 20
-36.35161403171071
 30
0.0
 10
0.9587700735450297
 20
-36.36573892320023
 30
0.0
 10
0.9870198565240784
 20
-36.39398870617928
 30
0.0
 10
1.015269639503127
 20
-36.42223848915833
 30
0.0
 10
1.029394530992651
 20
-36.45496689626821
 30
0.0
 10
1.029394530992651
 20
-36.49251843705743
 30
0.0
 10
1.029394530992651
 20
-36.53489311152601
 30
0.0
 10
1.015269639503127
 20
-36.56899955682997
 30
0.0
 10
0.9870198565240784
 20
-36.59483777296935
 30
0.0
 10
0.9587700735450297
 20
-36.62102049865725
 30
0.0
 10
0.9258694116608937
 20
-36.63376735195267
 30
0.0
 10
0.8883178708716705
 20
-36.63376735195267
 30
0.0
 10
0.8883178708716705
 20
-36.63376735195267
 30
0.0
 10
-1.701188150616369
 20
-36.63376735195267
 30
0.0
 10
-1.701188150616369
 20
-36.63376735195267
 30
0.0
 10
-1.743562825084942
 20
-36.63376735195267
 30
0.0
 10
-1.777669270388916
 20
-36.61964246046315
 30
0.0
 10
-1.803507486528289
 20
-36.5913926774841
 30
0.0
 10
-1.829345702667663
 20
-36.56314289450505
 30
0.0
 10
-1.84226481073735
 20
-36.53041448739518
 30
0.0
 10
-1.84226481073735
 20
-36.49251843705743
 30
0.0
 10
-1.84226481073735
 20
-36.49251843705743
 30
0.0
 10
-1.84226481073735
 20
-31.83612737919375
 30
0.0
 10
-1.84226481073735
 20
-31.83612737919375
 30
0.0
 10
-1.84226481073735
 20
-31.798231328856
 30
0.0
 10
-1.828139919247826
 20
-31.76550292174613
 30
0.0
 10
-1.799890136268777
 20
-31.73725313876708
 30
0.0
 10
-1.771640353289728
 20
-31.70900335578803
 30
0.0
 10
-1.73650037934018
 20
-31.69487846429851
 30
0.0
 10
-1.694125704871607
 20
-31.69487846429851
 30
0.0
 10
-1.651751030403034
 20
-31.69487846429851
 30
0.0
 10
-1.616438801679223
 20
-31.70900335578803
 30
0.0
 10
-1.588189018700175
 20
-31.73725313876708
 30
0.0
 10
-1.560111490495388
 20
-31.76550292174613
 30
0.0
 10
-1.545986599005864
 20
-31.798231328856
 30
0.0
 10
-1.545986599005864
 20
-31.83612737919375
 30
0.0
 10
-1.545986599005864
 20
-31.83612737919375
 30
0.0
 10
-1.545986599005864
 20
-36.4783935455679
 30
0.0
 10
-1.545986599005864
 20
-36.4783935455679
 30
0.0
 10
-1.545986599005864
 20
-36.4783935455679
 30
0.0
 10
-1.672938367637321
 20
-36.35161403171071
 30
0.0
 10
-1.672938367637321
 20
-36.35161403171071
 30
0.0
 10
-1.672938367637321
 20
-36.35161403171071
 30
0.0
 10
0.8883178708716705
 20
-36.35161403171071
 30
0.0
 10
0.8883178708716705
 20
-36.35161403171071
 30
0.0
  0
HATCH
  5
E7
330
BA
100
AcDbEntity
  8
0
 62
    18
420
        0
440
 33554687
100
AcDbHatch
 10
0.0
 20
0.0
 30
0.0
210
0.0
220
0.0
230
1.0
  2
SOLID
 70
     1
 71
     1
 91
        1
 92
        1
 93
        1
 72
     4
 94
        3
 73
     0
 74
     0
 95
       50
 96
       46
 40
0.0
 40
0.0
 40
0.0
 40
0.0
 40
1.0
 40
1.0
 40
1.0
 40
2.0
 40
2.0
 40
2.0
 40
3.0
 40
3.0
 40
3.0
 40
4.0
 40
4.0
 40
4.0
 40
5.0
 40
5.0
 40
5.0
 40
6.0
 40
6.0
 40
6.0
 40
7.0
 40
7.0
 40
7.0
 40
8.0
 40
8.0
 40
8.0
 40
9.0
 40
9.0
 40
9.0
 40
10.0
 40
10.0
 40
10.0
 40
11.0
 40
11.0
 40
11.0
 40
12.0
 40
12.0
 40
12.0
 40
13.0
 40
13.0
 40
13.0
 40
14.0
 40
14.0
 40
14.0
 40
15.0
 40
15.0
 40
15.0
 40
15.0
 10
0.8883178708716705
 20
-36.35161403171071
 10
0.9258694116608937
 20
-36.35161403171071
 10
0.9587700735450297
 20
-36.36573892320023
 10
0.9870198565240784
 20
-36.39398870617928
 10
1.015269639503127
 20
-36.42223848915833
 10
1.029394530992651
 20
-36.45496689626821
 10
1.029394530992651
 20
-36.49251843705743
 10
1.029394530992651
 20
-36.53489311152601
 10
1.015269639503127
 20
-36.56899955682997
 10
0.9870198565240784
 20
-36.59483777296935
 10
0.9587700735450297
 20
-36.62102049865725
 10
0.9258694116608937
 20
-36.63376735195267
 10
0.8883178708716705
 20
-36.63376735195267
 10
0.8883178708716705
 20
-36.63376735195267
 10
-1.701188150616369
 20
-36.63376735195267
 10
-1.701188150616369
 20
-36.63376735195267
 10
-1.743562825084942
 20
-36.63376735195267
 10
-1.777669270388916
 20
-36.61964246046315
 10
-1.803507486528289
 20
-36.5913926774841
 10
-1.829345702667663
 20
-36.56314289450505
 10
-1.84226481073735
 20
-36.53041448739518
 10
-1.84226481073735
 20
-36.49251843705743
 10
-1.84226481073735
 20
-36.49251843705743
 10
-1.84226481073735
 20
-31.83612737919375
 10
-1.84226481073735
 20
-31.83612737919375
 10
-1.84226481073735
 20
-31.798231328856
 10
-1.828139919247826
 20
-31.76550292174613
 10
-1.799890136268777
 20
-31.73725313876708
 10
-1.771640353289728
 20
-31.70900335578803
 10
-1.73650037934018
 20
-31.69487846429851
 10
-1.694125704871607
 20
-31.69487846429851
 10
-1.651751030403034
 20
-31.69487846429851
 10
-1.616438801679223
 20
-31.70900335578803
 10
-1.588189018700175
 20
-31.73725313876708
 10
-1.560111490495388
 20
-31.76550292174613
 10
-1.545986599005864
 20
-31.798231328856
 10
-1.545986599005864
 20
-31.83612737919375
 10
-1.545986599005864
 20
-31.83612737919375
 10
-1.545986599005864
 20
-36.4783935455679
 10
-1.545986599005864
 20
-36.4783935455679
 10
-1.545986599005864
 20
-36.4783935455679
 10
-1.672938367637321
 20
-36.35161403171071
 10
-1.672938367637321
 20
-36.35161403171071
 10
-1.672938367637321
 20
-36.35161403171071
 10
0.8883178708716705
 20
-36.35161403171071
 10
0.8883178708716705
 20
-36.35161403171071
 97
        0
 97
        1
330
E6
 75
     2
 76
     1
 98
        1
 10
0.0
 20
0.0
450
        0
451
        0
460
0.0
461
0.0
452
        0
462
0.0
453
        0
470

  0
SPLINE
  5
E8
330
BA
100
AcDbEntity
  8
0
100
AcDbSpline
210
0.0
220
0.0
230
1.0
 70
     9
 71
     3
 72
    35
 73
    31
 74
     0
 42
0.0000000001
 43
0.0000000001
 40
0.0
 40
0.0
 40
0.0
 40
0.0
 40
1.0
 40
1.0
 40
1.0
 40
2.0
 40
2.0
 40
2.0
 40
3.0
 40
3.0
 40
3.0
 40
4.0
 40
4.0
 40
4.0
 40
5.0
 40
5.0
 40
5.0
 40
6.0
 40
6.0
 40
6.0
 40
7.0
 40
7.0
 40
7.0
 40
8.0
 40
8.0
 40
8.0
 40
9.0
 40
9.0
 40
9.0
 40
10.0
 40
10.0
 40
10.0
 40
10.0
 10
2.136992729500474
 20
-36.48562824608692
 30
0.0
 10
2.132341850595386
 20
-36.5280029205555
 30
0.0
 10
2.115805392266187
 20
-36.56314289450505
 30
0.0
 10
2.087727864061401
 20
-36.5913926774841
 30
0.0
 10
2.059478081082352
 20
-36.61964246046315
 30
0.0
 10
2.026405164423954
 20
-36.63376735195267
 30
0.0
 10
1.988853623634731
 20
-36.63376735195267
 30
0.0
 10
1.94182807026107
 20
-36.63376735195267
 30
0.0
 10
1.905310058117422
 20
-36.61964246046315
 30
0.0
 10
1.879471841978048
 20
-36.5913926774841
 30
0.0
 10
1.853633625838675
 20
-36.56314289450505
 30
0.0
 10
1.840714517768988
 20
-36.5280029205555
 30
0.0
 10
1.840714517768988
 20
-36.48562824608692
 30
0.0
 10
1.840714517768988
 20
-36.48562824608692
 30
0.0
 10
1.840714517768988
 20
-31.84301757016425
 30
0.0
 10
1.840714517768988
 20
-31.84301757016425
 30
0.0
 10
1.840714517768988
 20
-31.80064289569568
 30
0.0
 10
1.854839409258512
 20
-31.76550292174613
 30
0.0
 10
1.883089192237561
 20
-31.73725313876708
 30
0.0
 10
1.911338975216609
 20
-31.70900335578803
 30
0.0
 10
1.946478949166158
 20
-31.69487846429851
 30
0.0
 10
1.988853623634731
 20
-31.69487846429851
 30
0.0
 10
2.031228298103304
 20
-31.69487846429851
 30
0.0
 10
2.066540526827115
 20
-31.70900335578803
 30
0.0
 10
2.094790309806163
 20
-31.73725313876708
 30
0.0
 10
2.122867838010949
 20
-31.76550292174613
 30
0.0
 10
2.136992729500474
 20
-31.80064289569568
 30
0.0
 10
2.136992729500474
 20
-31.84301757016425
 30
0.0
 10
2.136992729500474
 20
-31.84301757016425
 30
0.0
 10
2.136992729500474
 20
-36.48562824608692
 30
0.0
 10
2.136992729500474
 20
-36.48562824608692
 30
0.0
  0
HATCH
  5
E9
330
BA
100
AcDbEntity
  8
0
 62
    18
420
        0
440
 33554687
100
AcDbHatch
 10
0.0
 20
0.0
 30
0.0
210
0.0
220
0.0
230
1.0
  2
SOLID
 70
     1
 71
     1
 91
        1
 92
        1
 93
        1
 72
     4
 94
        3
 73
     0
 74
     0
 95
       35
 96
       31
 40
0.0
 40
0.0
 40
0.0
 40
0.0
 40
1.0
 40
1.0
 40
1.0
 40
2.0
 40
2.0
 40
2.0
 40
3.0
 40
3.0
 40
3.0
 40
4.0
 40
4.0
 40
4.0
 40
5.0
 40
5.0
 40
5.0
 40
6.0
 40
6.0
 40
6.0
 40
7.0
 40
7.0
 40
7.0
 40
8.0
 40
8.0
 40
8.0
 40
9.0
 40
9.0
 40
9.0
 40
10.0
 40
10.0
 40
10.0
 40
10.0
 10
2.136992729500474
 20
-36.48562824608692
 10
2.132341850595386
 20
-36.5280029205555
 10
2.115805392266187
 20
-36.56314289450505
 10
2.087727864061401
 20
-36.5913926774841
 10
2.059478081082352
 20
-36.61964246046315
 10
2.026405164423954
 20
-36.63376735195267
 10
1.988853623634731
 20
-36.63376735195267
 10
1.94182807026107
 20
-36.63376735195267
 10
1.905310058117422
 20
-36.61964246046315
 10
1.879471841978048
 20
-36.5913926774841
 10
1.853633625838675
 20
-36.56314289450505
 10
1.840714517768988
 20
-36.5280029205555
 10
1.840714517768988
 20
-36.48562824608692
 10
1.840714517768988
 20
-36.48562824608692
 10
1.840714517768988
 20
-31.84301757016425
 10
1.840714517768988
 20
-31.84301757016425
 10
1.840714517768988
 20
-31.80064289569568
 10
1.854839409258512
 20
-31.76550292174613
 10
1.883089192237561
 20
-31.73725313876708
 10
1.911338975216609
 20
-31.70900335578803
 10
1.946478949166158
 20
-31.69487846429851
 10
1.988853623634731
 20
-31.69487846429851
 10
2.031228298103304
 20
-31.69487846429851
 10
2.066540526827115
 20
-31.70900335578803
 10
2.094790309806163
 20
-31.73725313876708
 10
2.122867838010949
 20
-31.76550292174613
 10
2.136992729500474
 20
-31.80064289569568
 10
2.136992729500474
 20
-31.84301757016425
 10
2.136992729500474
 20
-31.84301757016425
 10
2.136992729500474
 20
-36.48562824608692
 10
2.136992729500474
 20
-36.48562824608692
 97
        0
 97
        1
330
E8
 75
     2
 76
     1
 98
        1
 10
0.0
 20
0.0
450
        0
451
        0
460
0.0
461
0.0
452
        0
462
0.0
453
        0
470

  0
SPLINE
  5
EA
330
BA
100
AcDbEntity
  8
0
100
AcDbSpline
210
0.0
220
0.0
230
1.0
 70
     9
 71
     3
 72
    41
 73
    37
 74
     0
 42
0.0000000001
 43
0.0000000001
 40
0.0
 40
0.0
 40
0.0
 40
0.0
 40
1.0
 40
1.0
 40
1.0
 40
2.0
 40
2.0
 40
2.0
 40
3.0
 40
3.0
 40
3.0
 40
4.0
 40
4.0
 40
4.0
 40
5.0
 40
5.0
 40
5.0
 40
6.0
 40
6.0
 40
6.0
 40
7.0
 40
7.0
 40
7.0
 40
8.0
 40
8.0
 40
8.0
 40
9.0
 40
9.0
 40
9.0
 40
10.0
 40
10.0
 40
10.0
 40
11.0
 40
11.0
 40
11.0
 40
12.0
 40
12.0
 40
12.0
 40
12.0
 10
5.453069388827705
 20
-36.35161403171071
 30
0.0
 10
5.885773381775084
 20
-36.35161403171071
 30
0.0
 10
6.235106063979418
 20
-36.25411782947814
 30
0.0
 10
6.500895180666443
 20
-36.05878091546447
 30
0.0
 10
6.766512042579205
 20
-35.86344400145081
 30
0.0
 10
6.961848956592871
 20
-35.60023870637772
 30
0.0
 10
7.086389158384653
 20
-35.26847601114816
 30
0.0
 10
7.211101614950696
 20
-34.93705782546713
 30
0.0
 10
7.273457843233718
 20
-34.56877711809392
 30
0.0
 10
7.273457843233718
 20
-34.16432290812559
 30
0.0
 10
7.273457843233718
 20
-33.87734645420428
 30
0.0
 10
7.239179143155483
 20
-33.60242783448134
 30
0.0
 10
7.171138507321798
 20
-33.33887802985973
 30
0.0
 10
7.102925616713852
 20
-33.07532822523812
 30
0.0
 10
6.995783147122581
 20
-32.84140624178965
 30
0.0
 10
6.850055608096513
 20
-32.63676756996581
 30
0.0
 10
6.704328069070445
 20
-32.43212889814197
 30
0.0
 10
6.516053600801542
 20
-32.27124293898081
 30
0.0
 10
6.285576712838328
 20
-32.15342067338526
 30
0.0
 10
6.055099824875114
 20
-32.03594291733824
 30
0.0
 10
5.777597383538239
 20
-31.97703178454047
 30
0.0
 10
5.453069388827705
 20
-31.97703178454047
 30
0.0
 10
5.453069388827705
 20
-31.97703178454047
 30
0.0
 10
3.802179632295982
 20
-31.97703178454047
 30
0.0
 10
3.802179632295982
 20
-31.97703178454047
 30
0.0
 10
3.802179632295982
 20
-31.97703178454047
 30
0.0
 10
3.844382051990293
 20
-31.92053221858237
 30
0.0
 10
3.844382051990293
 20
-31.92053221858237
 30
0.0
 10
3.844382051990293
 20
-31.92053221858237
 30
0.0
 10
3.844382051990293
 20
-36.41500378863931
 30
0.0
 10
3.844382051990293
 20
-36.41500378863931
 30
0.0
 10
3.844382051990293
 20
-36.41500378863931
 30
0.0
 10
3.802179632295982
 20
-36.35161403171071
 30
0.0
 10
3.802179632295982
 20
-36.35161403171071
 30
0.0
 10
3.802179632295982
 20
-36.35161403171071
 30
0.0
 10
5.453069388827705
 20
-36.35161403171071
 30
0.0
 10
5.453069388827705
 20
-36.35161403171071
 30
0.0
  0
SPLINE
  5
EB
330
BA
100
AcDbEntity
  8
0
100
AcDbSpline
210
0.0
220
0.0
230
1.0
 70
     9
 71
     3
 72
    47
 73
    43
 74
     0
 42
0.0000000001
 43
0.0000000001
 40
0.0
 40
0.0
 40
0.0
 40
0.0
 40
1.0
 40
1.0
 40
1.0
 40
2.0
 40
2.0
 40
2.0
 40
3.0
 40
3.0
 40
3.0
 40
4.0
 40
4.0
 40
4.0
 40
5.0
 40
5.0
 40
5.0
 40
6.0
 40
6.0
 40
6.0
 40
7.0
 40
7.0
 40
7.0
 40
8.0
 40
8.0
 40
8.0
 40
9.0
 40
9.0
 40
9.0
 40
10.0
 40
10.0
 40
10.0
 40
11.0
 40
11.0
 40
11.0
 40
12.0
 40
12.0
 40
12.0
 40
13.0
 40
13.0
 40
13.0
 40
14.0
 40
14.0
 40
14.0
 40
14.0
 10
5.523693846275326
 20
-31.69487846429851
 30
0.0
 10
5.87647162396491
 20
-31.69487846429851
 30
0.0
 10
6.182223848280833
 20
-31.76205782626088
 30
0.0
 10
6.440950519223095
 20
-31.8960720406371
 30
0.0
 10
6.699504935391096
 20
-32.03008625501332
 30
0.0
 10
6.912411836379535
 20
-32.2133653348286
 30
0.0
 10
7.079326712639891
 20
-32.44625378963149
 30
0.0
 10
7.246241588900245
 20
-32.67914224443438
 30
0.0
 10
7.369748262046452
 20
-32.94372557770157
 30
0.0
 10
7.44984673207851
 20
-33.24000378943305
 30
0.0
 10
7.529772947336307
 20
-33.53628200116455
 30
0.0
 10
7.569736054965205
 20
-33.8446180470944
 30
0.0
 10
7.569736054965205
 20
-34.16432290812559
 30
0.0
 10
7.569736054965205
 20
-34.61597492624184
 30
0.0
 10
7.498078068872009
 20
-35.02869736537478
 30
0.0
 10
7.354589841911352
 20
-35.40249022552438
 30
0.0
 10
7.211101614950696
 20
-35.77662759522251
 30
0.0
 10
6.98872070137782
 20
-36.07531737379368
 30
0.0
 10
6.687791610741246
 20
-36.29855956123786
 30
0.0
 10
6.38669026533041
 20
-36.52214625823058
 30
0.0
 10
5.998772513691279
 20
-36.63376735195267
 30
0.0
 10
5.523693846275326
 20
-36.63376735195267
 30
0.0
 10
5.523693846275326
 20
-36.63376735195267
 30
0.0
 10
3.689180500379788
 20
-36.63376735195267
 30
0.0
 10
3.689180500379788
 20
-36.63376735195267
 30
0.0
 10
3.651456704816302
 20
-36.63376735195267
 30
0.0
 10
3.618728297706429
 20
-36.61964246046315
 30
0.0
 10
3.59047851472738
 20
-36.5913926774841
 30
0.0
 10
3.562228731748331
 20
-36.56314289450505
 30
0.0
 10
3.548103840258807
 20
-36.53041448739518
 30
0.0
 10
3.548103840258807
 20
-36.49251843705743
 30
0.0
 10
3.548103840258807
 20
-36.49251843705743
 30
0.0
 10
3.548103840258807
 20
-31.83612737919375
 30
0.0
 10
3.548103840258807
 20
-31.83612737919375
 30
0.0
 10
3.548103840258807
 20
-31.798231328856
 30
0.0
 10
3.562228731748331
 20
-31.76550292174613
 30
0.0
 10
3.59047851472738
 20
-31.73725313876708
 30
0.0
 10
3.618728297706429
 20
-31.70900335578803
 30
0.0
 10
3.651456704816302
 20
-31.69487846429851
 30
0.0
 10
3.689180500379788
 20
-31.69487846429851
 30
0.0
 10
3.689180500379788
 20
-31.69487846429851
 30
0.0
 10
5.523693846275326
 20
-31.69487846429851
 30
0.0
 10
5.523693846275326
 20
-31.69487846429851
 30
0.0
  0
HATCH
  5
EC
330
BA
100
AcDbEntity
  8
0
 62
    18
420
        0
440
 33554687
100
AcDbHatch
 10
0.0
 20
0.0
 30
0.0
210
0.0
220
0.0
230
1.0
  2
SOLID
 70
     1
 71
     1
 91
        2
 92
        1
 93
        1
 72
     4
 94
        3
 73
     0
 74
     0
 95
       41
 96
       37
 40
0.0
 40
0.0
 40
0.0
 40
0.0
 40
1.0
 40
1.0
 40
1.0
 40
2.0
 40
2.0
 40
2.0
 40
3.0
 40
3.0
 40
3.0
 40
4.0
 40
4.0
 40
4.0
 40
5.0
 40
5.0
 40
5.0
 40
6.0
 40
6.0
 40
6.0
 40
7.0
 40
7.0
 40
7.0
 40
8.0
 40
8.0
 40
8.0
 40
9.0
 40
9.0
 40
9.0
 40
10.0
 40
10.0
 40
10.0
 40
11.0
 40
11.0
 40
11.0
 40
12.0
 40
12.0
 40
12.0
 40
12.0
 10
5.453069388827705
 20
-36.35161403171071
 10
5.885773381775084
 20
-36.35161403171071
 10
6.235106063979418
 20
-36.25411782947814
 10
6.500895180666443
 20
-36.05878091546447
 10
6.766512042579205
 20
-35.86344400145081
 10
6.961848956592871
 20
-35.60023870637772
 10
7.086389158384653
 20
-35.26847601114816
 10
7.211101614950696
 20
-34.93705782546713
 10
7.273457843233718
 20
-34.56877711809392
 10
7.273457843233718
 20
-34.16432290812559
 10
7.273457843233718
 20
-33.87734645420428
 10
7.239179143155483
 20
-33.60242783448134
 10
7.171138507321798
 20
-33.33887802985973
 10
7.102925616713852
 20
-33.07532822523812
 10
6.995783147122581
 20
-32.84140624178965
 10
6.850055608096513
 20
-32.63676756996581
 10
6.704328069070445
 20
-32.43212889814197
 10
6.516053600801542
 20
-32.27124293898081
 10
6.285576712838328
 20
-32.15342067338526
 10
6.055099824875114
 20
-32.03594291733824
 10
5.777597383538239
 20
-31.97703178454047
 10
5.453069388827705
 20
-31.97703178454047
 10
5.453069388827705
 20
-31.97703178454047
 10
3.802179632295982
 20
-31.97703178454047
 10
3.802179632295982
 20
-31.97703178454047
 10
3.802179632295982
 20
-31.97703178454047
 10
3.844382051990293
 20
-31.92053221858237
 10
3.844382051990293
 20
-31.92053221858237
 10
3.844382051990293
 20
-31.92053221858237
 10
3.844382051990293
 20
-36.41500378863931
 10
3.844382051990293
 20
-36.41500378863931
 10
3.844382051990293
 20
-36.41500378863931
 10
3.802179632295982
 20
-36.35161403171071
 10
3.802179632295982
 20
-36.35161403171071
 10
3.802179632295982
 20
-36.35161403171071
 10
5.453069388827705
 20
-36.35161403171071
 10
5.453069388827705
 20
-36.35161403171071
 97
        0
 97
        1
330
EA
 92
        1
 93
        1
 72
     4
 94
        3
 73
     0
 74
     0
 95
       47
 96
       43
 40
0.0
 40
0.0
 40
0.0
 40
0.0
 40
1.0
 40
1.0
 40
1.0
 40
2.0
 40
2.0
 40
2.0
 40
3.0
 40
3.0
 40
3.0
 40
4.0
 40
4.0
 40
4.0
 40
5.0
 40
5.0
 40
5.0
 40
6.0
 40
6.0
 40
6.0
 40
7.0
 40
7.0
 40
7.0
 40
8.0
 40
8.0
 40
8.0
 40
9.0
 40
9.0
 40
9.0
 40
10.0
 40
10.0
 40
10.0
 40
11.0
 40
11.0
 40
11.0
 40
12.0
 40
12.0
 40
12.0
 40
13.0
 40
13.0
 40
13.0
 40
14.0
 40
14.0
 40
14.0
 40
14.0
 10
5.523693846275326
 20
-31.69487846429851
 10
5.87647162396491
 20
-31.69487846429851
 10
6.182223848280833
 20
-31.76205782626088
 10
6.440950519223095
 20
-31.8960720406371
 10
6.699504935391096
 20
-32.03008625501332
 10
6.912411836379535
 20
-32.2133653348286
 10
7.079326712639891
 20
-32.44625378963149
 10
7.246241588900245
 20
-32.67914224443438
 10
7.369748262046452
 20
-32.94372557770157
 10
7.44984673207851
 20
-33.24000378943305
 10
7.529772947336307
 20
-33.53628200116455
 10
7.569736054965205
 20
-33.8446180470944
 10
7.569736054965205
 20
-34.16432290812559
 10
7.569736054965205
 20
-34.61597492624184
 10
7.498078068872009
 20
-35.02869736537478
 10
7.354589841911352
 20
-35.40249022552438
 10
7.211101614950696
 20
-35.77662759522251
 10
6.98872070137782
 20
-36.07531737379368
 10
6.687791610741246
 20
-36.29855956123786
 10
6.38669026533041
 20
-36.52214625823058
 10
5.998772513691279
 20
-36.63376735195267
 10
5.523693846275326
 20
-36.63376735195267
 10
5.523693846275326
 20
-36.63376735195267
 10
3.689180500379788
 20
-36.63376735195267
 10
3.689180500379788
 20
-36.63376735195267
 10
3.651456704816302
 20
-36.63376735195267
 10
3.618728297706429
 20
-36.61964246046315
 10
3.59047851472738
 20
-36.5913926774841
 10
3.562228731748331
 20
-36.56314289450505
 10
3.548103840258807
 20
-36.53041448739518
 10
3.548103840258807
 20
-36.49251843705743
 10
3.548103840258807
 20
-36.49251843705743
 10
3.548103840258807
 20
-31.83612737919375
 10
3.548103840258807
 20
-31.83612737919375
 10
3.548103840258807
 20
-31.798231328856
 10
3.562228731748331
 20
-31.76550292174613
 10
3.59047851472738
 20
-31.73725313876708
 10
3.618728297706429
 20
-31.70900335578803
 10
3.651456704816302
 20
-31.69487846429851
 10
3.689180500379788
 20
-31.69487846429851
 10
3.689180500379788
 20
-31.69487846429851
 10
5.523693846275326
 20
-31.69487846429851
 10
5.523693846275326
 20
-31.69487846429851
 97
        0
 97
        1
330
EB
 75
     2
 76
     1
 98
        1
 10
0.0
 20
0.0
450
        0
451
        0
460
0.0
461
0.0
452
        0
462
0.0
453
        0
470

  0
ENDBLK
  5
BD
330
BA
100
AcDbEntity
  8
0
100
AcDbBlockEnd
  0
ENDSEC
  0
SECTION
  2
ENTITIES
  0
SPLINE
  5
78
330
70
100
AcDbEntity
  8
0
  6
AI-Linetype-0
 62
    18
420
        0
370
    25
100
AcDbSpline
210
0.0
220
0.0
230
1.0
 70
     9
 71
     3
 72
    29
 73
    25
 74
     0
 42
0.0000000001
 43
0.0000000001
 40
0.0
 40
0.0
 40
0.0
 40
0.0
 40
1.0
 40
1.0
 40
1.0
 40
2.0
 40
2.0
 40
2.0
 40
3.0
 40
3.0
 40
3.0
 40
4.0
 40
4.0
 40
4.0
 40
5.0
 40
5.0
 40
5.0
 40
6.0
 40
6.0
 40
6.0
 40
7.0
 40
7.0
 40
7.0
 40
8.0
 40
8.0
 40
8.0
 40
8.0
 10
273.6277777513667
 20
-14.23055559268522
 30
0.0
 10
273.6277777513667
 20
-14.23055559268522
 30
0.0
 10
273.6277777513667
 20
341.7694444073145
 30
0.0
 10
273.6277777513667
 20
341.7694444073145
 30
0.0
 10
273.6277777513667
 20
348.396861405284
 30
0.0
 10
268.2551947493365
 20
353.7694444073146
 30
0.0
 10
261.6277777513669
 20
353.7694444073146
 30
0.0
 10
261.6277777513669
 20
353.7694444073146
 30
0.0
 10
-74.37222224863306
 20
353.7694444073146
 30
0.0
 10
-74.37222224863306
 20
353.7694444073146
 30
0.0
 10
-80.9996392466026
 20
353.7694444073146
 30
0.0
 10
-86.37222224863316
 20
348.396861405284
 30
0.0
 10
-86.37222224863316
 20
341.7694444073145
 30
0.0
 10
-86.37222224863316
 20
341.7694444073145
 30
0.0
 10
-86.37222224863316
 20
-14.23055559268522
 30
0.0
 10
-86.37222224863316
 20
-14.23055559268522
 30
0.0
 10
-86.37222224863316
 20
-20.85797259065476
 30
0.0
 10
-80.9996392466026
 20
-26.23055559268565
 30
0.0
 10
-74.37222224863306
 20
-26.23055559268565
 30
0.0
 10
-74.37222224863306
 20
-26.23055559268565
 30
0.0
 10
261.6277777513669
 20
-26.23055559268565
 30
0.0
 10
261.6277777513669
 20
-26.23055559268565
 30
0.0
 10
268.2551947493358
 20
-26.23055559268565
 30
0.0
 10
273.6277777513667
 20
-20.8579725906554
 30
0.0
 10
273.6277777513667
 20
-14.23055559268522
 30
0.0
  0
CIRCLE
  5
7A
330
70
100
AcDbEntity
  8
0
 62
    18
420
        0
370
    25
100
AcDbCircle
 10
13.62777775136651
 20
-53.23055559268532
 30
0.0
 40
3.499999999999963
  0
CIRCLE
  5
7B
330
70
100
AcDbEntity
  8
0
 62
    18
420
        0
370
    25
100
AcDbCircle
 10
173.6277777513665
 20
-53.23055559268532
 30
0.0
 40
3.499999999999882
  0
LINE
  5
7C
330
70
100
AcDbEntity
  8
0
 62
    18
420
        0
370
    25
100
AcDbLine
 10
14.62777775091511
 20
341.7694444071102
 30
0.0
 11
14.62777775091511
 21
335.7694444071102
 31
0.0
  0
LINE
  5
7D
330
70
100
AcDbEntity
  8
0
 62
    18
420
        0
370
    25
100
AcDbLine
 10
11.62777775091501
 20
338.7694444071104
 30
0.0
 11
17.62777775091522
 21
338.7694444071104
 31
0.0
  0
LINE
  5
7E
330
70
100
AcDbEntity
  8
0
 62
    18
420
        0
370
    25
100
AcDbLine
 10
93.62777775136677
 20
339.7694444073144
 30
0.0
 11
93.62777775136677
 21
333.7694444073142
 31
0.0
  0
LINE
  5
7F
330
70
100
AcDbEntity
  8
0
 62
    18
420
        0
370
    25
100
AcDbLine
 10
90.627777751367
 20
336.7694444073143
 30
0.0
 11
96.62777775136689
 21
336.7694444073143
 31
0.0
  0
LINE
  5
80
330
70
100
AcDbEntity
  8
0
 62
    18
420
        0
370
    25
100
AcDbLine
 10
172.6277777509146
 20
341.7694444075183
 30
0.0
 11
172.6277777509146
 21
335.7694444075181
 31
0.0
  0
LINE
  5
81
330
70
100
AcDbEntity
  8
0
 62
    18
420
        0
370
    25
100
AcDbLine
 10
169.6277777509151
 20
338.7694444075182
 30
0.0
 11
175.6277777509147
 21
338.7694444075182
 31
0.0
  0
LINE
  5
82
330
70
100
AcDbEntity
  8
0
 62
    18
420
        0
370
    25
100
AcDbLine
 10
218.6277777513667
 20
252.2694444073145
 30
0.0
 11
218.6277777513667
 21
246.2694444073147
 31
0.0
  0
LINE
  5
83
330
70
100
AcDbEntity
  8
0
 62
    18
420
        0
370
    25
100
AcDbLine
 10
215.6277777513666
 20
249.2694444073145
 30
0.0
 11
221.6277777513668
 21
249.2694444073145
 31
0.0
  0
CIRCLE
  5
84
330
70
100
AcDbEntity
  8
0
 62
    18
420
        0
370
    25
100
AcDbCircle
 10
173.6277777513665
 20
-53.23055559268532
 30
0.0
 40
3.499999999999882
  0
CIRCLE
  5
85
330
70
100
AcDbEntity
  8
0
 62
    18
420
        0
370
    25
100
AcDbCircle
 10
13.62777775136651
 20
-53.23055559268532
 30
0.0
 40
3.499999999999963
  0
LINE
  5
86
330
70
100
AcDbEntity
  8
0
 62
    18
420
        0
370
    25
100
AcDbLine
 10
-31.37222224863347
 20
252.2694444073145
 30
0.0
 11
-31.37222224863347
 21
246.2694444073147
 31
0.0
  0
LINE
  5
87
330
70
100
AcDbEntity
  8
0
 62
    18
420
        0
370
    25
100
AcDbLine
 10
-28.37222224863337
 20
249.2694444073148
 30
0.0
 11
-34.37222224863358
 21
249.2694444073148
 31
0.0
  0
LINE
  5
88
330
70
100
AcDbEntity
  8
0
 62
    18
420
        0
370
    25
100
AcDbLine
 10
-66.37222224863342
 20
160.7694444069016
 30
0.0
 11
-66.37222224863342
 21
166.7694444069015
 31
0.0
  0
LINE
  5
89
330
70
100
AcDbEntity
  8
0
 62
    18
420
        0
370
    25
100
AcDbLine
 10
-63.37222224863332
 20
163.7694444069014
 30
0.0
 11
-69.37222224863353
 21
163.7694444069014
 31
0.0
  0
LINE
  5
8A
330
70
100
AcDbEntity
  8
0
 62
    18
420
        0
370
    25
100
AcDbLine
 10
256.6277777513668
 20
163.7694444077276
 30
0.0
 11
250.6277777513666
 21
163.7694444077276
 31
0.0
  0
LINE
  5
8B
330
70
100
AcDbEntity
  8
0
 62
    18
420
        0
370
    25
100
AcDbLine
 10
253.6277777513666
 20
160.7694444077278
 30
0.0
 11
253.6277777513666
 21
166.7694444077277
 31
0.0
  0
LINE
  5
8C
330
70
100
AcDbEntity
  8
0
 62
    18
420
        0
370
    25
100
AcDbLine
 10
218.6277777513667
 20
81.26944440731461
 30
0.0
 11
218.6277777513667
 21
75.2694444073144
 31
0.0
  0
LINE
  5
8D
330
70
100
AcDbEntity
  8
0
 62
    18
420
        0
370
    25
100
AcDbLine
 10
221.6277777513668
 20
78.26944440731452
 30
0.0
 11
215.6277777513666
 21
78.26944440731452
 31
0.0
  0
LINE
  5
8E
330
70
100
AcDbEntity
  8
0
 62
    18
420
        0
370
    25
100
AcDbLine
 10
293.6277777516248
 20
66.769444407831
 30
0.0
 11
293.6277777516248
 21
60.76944440783079
 31
0.0
  0
LINE
  5
8F
330
70
100
AcDbEntity
  8
0
 62
    18
420
        0
370
    25
100
AcDbLine
 10
296.6277777516248
 20
63.76944440783089
 30
0.0
 11
290.6277777516247
 21
63.76944440783089
 31
0.0
  0
LINE
  5
90
330
70
100
AcDbEntity
  8
0
 62
    18
420
        0
370
    25
100
AcDbLine
 10
268.6277777514987
 20
-35.23055559223357
 30
0.0
 11
268.6277777514987
 21
-29.23055559223399
 31
0.0
  0
LINE
  5
91
330
70
100
AcDbEntity
  8
0
 62
    18
420
        0
370
    25
100
AcDbLine
 10
271.6277777514982
 20
-32.23055559223346
 30
0.0
 11
265.6277777514986
 21
-32.23055559223346
 31
0.0
  0
LINE
  5
92
330
70
100
AcDbEntity
  8
0
 62
    18
420
        0
370
    25
100
AcDbLine
 10
172.6277777518726
 20
-35.23055559248126
 30
0.0
 11
172.6277777518726
 21
-29.23055559248169
 31
0.0
  0
LINE
  5
93
330
70
100
AcDbEntity
  8
0
 62
    18
420
        0
370
    25
100
AcDbLine
 10
175.6277777518727
 20
-32.23055559248115
 30
0.0
 11
169.6277777518725
 21
-32.23055559248115
 31
0.0
  0
LINE
  5
94
330
70
100
AcDbEntity
  8
0
 62
    18
420
        0
370
    25
100
AcDbLine
 10
93.62777775136677
 20
-7.230555592684972
 30
0.0
 11
93.62777775136677
 21
-1.230555592685401
 31
0.0
  0
LINE
  5
95
330
70
100
AcDbEntity
  8
0
 62
    18
420
        0
370
    25
100
AcDbLine
 10
96.62777775136689
 20
-4.230555592685507
 30
0.0
 11
90.62777775136666
 21
-4.230555592685507
 31
0.0
  0
LINE
  5
96
330
70
100
AcDbEntity
  8
0
 62
    18
420
        0
370
    25
100
AcDbLine
 10
14.6277777518183
 20
-14.23055559288928
 30
0.0
 11
14.6277777518183
 21
-8.230555592889066
 31
0.0
  0
LINE
  5
97
330
70
100
AcDbEntity
  8
0
 62
    18
420
        0
370
    25
100
AcDbLine
 10
17.62777775181841
 20
-11.23055559288917
 30
0.0
 11
11.62777775181852
 21
-11.23055559288917
 31
0.0
  0
LINE
  5
98
330
70
100
AcDbEntity
  8
0
 62
    18
420
        0
370
    25
100
AcDbLine
 10
-31.37222224863315
 20
75.2694444073144
 30
0.0
 11
-31.37222224863315
 21
81.26944440731461
 31
0.0
  0
LINE
  5
99
330
70
100
AcDbEntity
  8
0
 62
    18
420
        0
370
    25
100
AcDbLine
 10
-28.37222224863337
 20
78.26944440731452
 30
0.0
 11
-34.37222224863326
 21
78.26944440731452
 31
0.0
  0
SPLINE
  5
9A
330
70
100
AcDbEntity
  8
0
 62
    18
420
        0
370
    25
100
AcDbSpline
210
0.0
220
0.0
230
1.0
 70
     8
 71
     3
 72
     8
 73
     4
 74
     0
 42
0.0000000001
 43
0.0000000001
 40
0.0
 40
0.0
 40
0.0
 40
0.0
 40
1.0
 40
1.0
 40
1.0
 40
1.0
 10
48.77367747360997
 20
28.61557608338347
 30
0.0
 10
78.3273534614931
 20
22.15406718195863
 30
0.0
 10
108.9282020412401
 20
22.15406718195863
 30
0.0
 10
138.4818780291226
 20
28.61557608338347
 30
0.0
  0
SPLINE
  5
9B
330
70
100
AcDbEntity
  8
0
 62
    18
420
        0
370
    25
100
AcDbSpline
210
0.0
220
0.0
230
1.0
 70
     8
 71
     3
 72
    14
 73
    10
 74
     0
 42
0.0000000001
 43
0.0000000001
 40
0.0
 40
0.0
 40
0.0
 40
0.0
 40
1.0
 40
1.0
 40
1.0
 40
2.0
 40
2.0
 40
2.0
 40
3.0
 40
3.0
 40
3.0
 40
3.0
 10
-0.1249323283133617
 20
64.32603161831213
 30
0.0
 10
4.765778026866843
 20
55.8727545857601
 30
0.0
 10
11.26084350279603
 20
48.45555997462465
 30
0.0
 10
18.99467633975701
 20
42.49193942857358
 30
0.0
 10
23.3706720566182
 20
39.11757402442491
 30
0.0
 10
28.10622394137258
 20
36.23714751498439
 30
0.0
 10
33.11503113405115
 20
33.90315289175356
 30
0.0
 10
38.12383832672971
 20
31.56915826852209
 30
0.0
 10
43.3752879727376
 20
29.79586045232432
 30
0.0
 10
48.7736774736103
 20
28.61557608338347
 30
0.0
  0
SPLINE
  5
9C
330
70
100
AcDbEntity
  8
0
 62
    18
420
        0
370
    25
100
AcDbSpline
210
0.0
220
0.0
230
1.0
 70
     8
 71
     3
 72
    14
 73
    10
 74
     0
 42
0.0000000001
 43
0.0000000001
 40
0.0
 40
0.0
 40
0.0
 40
0.0
 40
1.0
 40
1.0
 40
1.0
 40
2.0
 40
2.0
 40
2.0
 40
3.0
 40
3.0
 40
3.0
 40
3.0
 10
-0.1249323283136825
 20
64.32603161831277
 30
0.0
 10
-0.2984545184721156
 20
64.62595351885046
 30
0.0
 10
-0.4707852892962288
 20
64.9267303749669
 30
0.0
 10
-0.6419302468395224
 20
65.2283493247808
 30
0.0
 10
-8.255823888880389
 20
78.64676747320952
 30
0.0
 10
-13.40996786985014
 20
93.52427446904178
 30
0.0
 10
-16.77293826735473
 20
108.6004398180542
 30
0.0
 10
-20.77754325395799
 20
126.5530471262597
 30
0.0
 10
-22.37222224863347
 20
145.3480060290246
 30
0.0
 10
-22.37222224863347
 20
163.7694444073146
 30
0.0
  0
SPLINE
  5
9D
330
70
100
AcDbEntity
  8
0
 62
    18
420
        0
370
    25
100
AcDbSpline
210
0.0
220
0.0
230
1.0
 70
     8
 71
     3
 72
    20
 73
    16
 74
     0
 42
0.0000000001
 43
0.0000000001
 40
0.0
 40
0.0
 40
0.0
 40
0.0
 40
1.0
 40
1.0
 40
1.0
 40
2.0
 40
2.0
 40
2.0
 40
3.0
 40
3.0
 40
3.0
 40
4.0
 40
4.0
 40
4.0
 40
5.0
 40
5.0
 40
5.0
 40
5.0
 10
-22.37222224863347
 20
163.7694444073146
 30
0.0
 10
-22.37222224863347
 20
194.0586657677248
 30
0.0
 10
-18.06743564892089
 20
220.8359714020143
 30
0.0
 10
-9.609250310647226
 20
243.1030778318948
 30
0.0
 10
-4.001054970678697
 20
257.8672710388663
 30
0.0
 10
3.849489368925913
 20
271.7344690385067
 30
0.0
 10
14.61555305799676
 20
283.2718950075287
 30
0.0
 10
23.29598070905248
 20
292.574254188738
 30
0.0
 10
33.44444930095561
 20
299.9004757641177
 30
0.0
 10
45.04479596072829
 20
305.1360485503962
 30
0.0
 10
52.22742077209068
 20
308.3777753797181
 30
0.0
 10
59.73878362900065
 20
310.7158360431055
 30
0.0
 10
67.46467924264081
 20
312.2759891211518
 30
0.0
 10
76.06575972276298
 20
314.0128754132598
 30
0.0
 10
84.85113767047867
 20
314.7694444073145
 30
0.0
 10
93.62777775136677
 20
314.7694444073145
 30
0.0
  0
SPLINE
  5
9E
330
70
100
AcDbEntity
  8
0
 62
    18
420
        0
370
    25
100
AcDbSpline
210
0.0
220
0.0
230
1.0
 70
     8
 71
     3
 72
    20
 73
    16
 74
     0
 42
0.0000000001
 43
0.0000000001
 40
0.0
 40
0.0
 40
0.0
 40
0.0
 40
1.0
 40
1.0
 40
1.0
 40
2.0
 40
2.0
 40
2.0
 40
3.0
 40
3.0
 40
3.0
 40
4.0
 40
4.0
 40
4.0
 40
5.0
 40
5.0
 40
5.0
 40
5.0
 10
93.62777775136677
 20
314.7694444073145
 30
0.0
 10
109.2509216717382
 20
314.7694444073145
 30
0.0
 10
124.7905102194063
 20
312.3721088425402
 30
0.0
 10
139.2340470256
 20
306.4204917769193
 30
0.0
 10
150.9204174716385
 20
301.6049952184875
 30
0.0
 10
161.2596736817171
 20
294.7217915409279
 30
0.0
 10
170.1995120068981
 20
285.7964923936535
 30
0.0
 10
179.7870816998717
 20
276.2245153072111
 30
0.0
 10
187.22129739526
 20
264.8448703121029
 30
0.0
 10
192.9039922184658
 20
252.5432203918645
 30
0.0
 10
198.7472463607614
 20
239.8939986599541
 30
0.0
 10
202.7330720053384
 20
226.2882333196311
 30
0.0
 10
205.3397698576902
 20
212.5863311611257
 30
0.0
 10
208.3812812924367
 20
196.5988656191316
 30
0.0
 10
209.6277777513664
 20
180.0561192286041
 30
0.0
 10
209.6277777513664
 20
163.7694444073143
 30
0.0
  0
SPLINE
  5
9F
330
70
100
AcDbEntity
  8
0
 62
    18
420
        0
370
    25
100
AcDbSpline
210
0.0
220
0.0
230
1.0
 70
     8
 71
     3
 72
    11
 73
     7
 74
     0
 42
0.0000000001
 43
0.0000000001
 40
0.0
 40
0.0
 40
0.0
 40
0.0
 40
1.0
 40
1.0
 40
1.0
 40
2.0
 40
2.0
 40
2.0
 40
2.0
 10
209.6277777513664
 20
163.7694444073143
 30
0.0
 10
209.6277777513664
 20
134.322931116674
 30
0.0
 10
205.5628090378025
 20
108.2226680535537
 30
0.0
 10
197.5738364311171
 20
86.33965765448039
 30
0.0
 10
194.7973332830719
 20
78.73439346683284
 30
0.0
 10
191.4323499884448
 20
71.32941370940717
 30
0.0
 10
187.3804878310449
 20
64.32603161831021
 30
0.0
  0
SPLINE
  5
A0
330
70
100
AcDbEntity
  8
0
 62
    18
420
        0
370
    25
100
AcDbSpline
210
0.0
220
0.0
230
1.0
 70
     8
 71
     3
 72
    14
 73
    10
 74
     0
 42
0.0000000001
 43
0.0000000001
 40
0.0
 40
0.0
 40
0.0
 40
0.0
 40
1.0
 40
1.0
 40
1.0
 40
2.0
 40
2.0
 40
2.0
 40
3.0
 40
3.0
 40
3.0
 40
3.0
 10
138.4818780291226
 20
28.61557608338283
 30
0.0
 10
148.0226190832529
 20
30.70152922412681
 30
0.0
 10
157.0647124197122
 20
34.63105839831882
 30
0.0
 10
165.099205717961
 20
40.18298219172029
 30
0.0
 10
169.6453226306841
 20
43.32439929400814
 30
0.0
 10
173.8303632942866
 20
46.95864518187518
 30
0.0
 10
177.5780593841744
 20
51.01948923361305
 30
0.0
 10
181.3257554740628
 20
55.08033328535026
 30
0.0
 10
184.6132018012258
 20
59.54295641255924
 30
0.0
 10
187.3804878310449
 20
64.32603161830957
 30
0.0
  0
INSERT
  5
A2
330
70
100
AcDbEntity
  8
0
100
AcDbBlockReference
  2
Block_0
 10
0.0
 20
0.0
 30
0.0
  0
INSERT
  5
B7
330
70
100
AcDbEntity
  8
0
100
AcDbBlockReference
  2
Block_2
 10
0.0
 20
0.0
 30
0.0
  0
ENDSEC
  0
SECTION
  2
OBJECTS
  0
DICTIONARY
  5
C
330
0
100
AcDbDictionary
281
     1
  3
ACAD_COLOR
350
63
  3
ACAD_DETAILVIEWSTYLE
350
6A
  3
ACAD_GROUP
350
D
  3
ACAD_LAYOUT
350
62
  3
ACAD_MATERIAL
350
10
  3
ACAD_MLEADERSTYLE
350
66
  3
ACAD_MLINESTYLE
350
5F
  3
ACAD_PLOTSETTINGS
350
61
  3
ACAD_PLOTSTYLENAME
350
E
  3
ACAD_SCALELIST
350
42
  3
ACAD_SECTIONVIEWSTYLE
350
68
  3
ACAD_TABLESTYLE
350
64
  3
ACAD_VISUALSTYLE
350
29
  3
ACDB_RECOMPOSE_DATA
350
F5
  3
AcDbVariableDictionary
350
ED
  0
DICTIONARY
  5
63
102
{ACAD_REACTORS
330
C
102
}
330
C
100
AcDbDictionary
281
     1
  0
DICTIONARY
  5
6A
102
{ACAD_REACTORS
330
C
102
}
330
C
100
AcDbDictionary
281
     1
  3
Imperial24
350
6B
  0
DICTIONARY
  5
D
102
{ACAD_REACTORS
330
C
102
}
330
C
100
AcDbDictionary
281
     1
  0
DICTIONARY
  5
62
102
{ACAD_REACTORS
330
C
102
}
330
C
100
AcDbDictionary
281
     1
  3
Layout1
350
6F
  3
Layout2
350
77
  3
Model
350
73
  0
DICTIONARY
  5
10
102
{ACAD_REACTORS
330
C
102
}
330
C
100
AcDbDictionary
281
     1
  3
ByBlock
350
19
  3
ByLayer
350
11
  3
Global
350
21
  0
DICTIONARY
  5
66
102
{ACAD_REACTORS
330
C
102
}
330
C
100
AcDbDictionary
281
     1
  3
Standard
350
67
  0
DICTIONARY
  5
5F
102
{ACAD_REACTORS
330
C
102
}
330
C
100
AcDbDictionary
281
     1
  3
Standard
350
60
  0
DICTIONARY
  5
61
102
{ACAD_REACTORS
330
C
102
}
330
C
100
AcDbDictionary
281
     1
  0
ACDBDICTIONARYWDFLT
  5
E
102
{ACAD_REACTORS
330
C
102
}
330
C
100
AcDbDictionary
281
     1
  3
Normal
350
F
100
AcDbDictionaryWithDefault
340
F
  0
DICTIONARY
  5
42
102
{ACAD_REACTORS
330
C
102
}
330
C
100
AcDbDictionary
281
     1
  3
A0
350
43
  3
A1
350
44
  3
A2
350
45
  3
A3
350
46
  3
A4
350
47
  3
A5
350
48
  3
A6
350
49
  3
A7
350
4A
  3
A8
350
4B
  3
A9
350
4C
  3
B0
350
4D
  3
B1
350
4E
  3
B2
350
4F
  3
B3
350
50
  3
B4
350
51
  3
B5
350
52
  3
B6
350
53
  0
DICTIONARY
  5
68
102
{ACAD_REACTORS
330
C
102
}
330
C
100
AcDbDictionary
281
     1
  3
Imperial24
350
69
  0
DICTIONARY
  5
64
102
{ACAD_REACTORS
330
C
102
}
330
C
100
AcDbDictionary
281
     1
  3
Standard
350
65
  0
DICTIONARY
  5
29
102
{ACAD_REACTORS
330
C
102
}
330
C
100
AcDbDictionary
281
     1
  3
2dWireframe
350
2F
  3
Basic
350
2E
  3
Brighten
350
35
  3
ColorChange
350
39
  3
Conceptual
350
32
  3
Dim
350
34
  3
EdgeColorOff
350
41
  3
Facepattern
350
38
  3
Flat
350
2A
  3
FlatWithEdges
350
2B
  3
Gouraud
350
2C
  3
GouraudWithEdges
350
2D
  3
Hidden
350
31
  3
JitterOff
350
3F
  3
Linepattern
350
37
  3
OverhangOff
350
40
  3
Realistic
350
33
  3
Shaded
350
3E
  3
Shaded with edges
350
3D
  3
Shades of Gray
350
3A
  3
Sketchy
350
3B
  3
Thicken
350
36
  3
Wireframe
350
30
  3
X-Ray
350
3C
  0
XRECORD
  5
F5
102
{ACAD_REACTORS
330
C
102
}
330
C
100
AcDbXrecord
280
     1
 90
        1
330
65
  0
DICTIONARY
  5
ED
102
{ACAD_REACTORS
330
C
102
}
330
C
100
AcDbDictionary
281
     1
  3
CANNOSCALE
350
F2
  3
CMLEADERSTYLE
350
EF
  3
CTABLESTYLE
350
EE
  3
CVIEWDETAILSTYLE
350
F0
  3
CVIEWSECTIONSTYLE
350
F1
  0
ACDBDETAILVIEWSTYLE
  5
6B
102
{ACAD_REACTORS
330
6A
102
}
330
6A
100
AcDbModelDocViewStyle
 70
     0
  3
Imperial24
290
     1
300
Imperial24
 90
        0
100
AcDbDetailViewStyle
 70
     0
 71
     0
 90
        3
 71
     1
340
55
 62
   256
 40
0.24
340
0
 62
   256
 40
0.24
300

 40
0.36
280
     3
 71
     2
340
5D
 90
       25
 62
   256
 71
     3
340
55
 62
   256
 40
0.24
 90
        1
 40
0.75
 90
        1
300
%<\AcVar ViewType \f "%tc1">% %<\AcVar ViewDetailId>%\PSCALE %<\AcVar ViewScale \f "%sn">%
 71
     4
340
5D
 90
       25
 62
   256
340
5D
 90
       25
 62
   256
280
     0
  0
LAYOUT
  5
6F
102
{ACAD_REACTORS
330
62
102
}
330
62
100
AcDbPlotSettings
  1

  2

  4

  6

 40
0.0
 41
0.0
 42
0.0
 43
0.0
 44
0.0
 45
0.0
 46
0.0
 47
0.0
 48
0.0
 49
0.0
140
0.0
141
0.0
142
1.0
143
1.0
 70
   688
 72
     0
 73
     0
 74
     5
  7

 75
    16
147
1.0
 76
     0
 77
     2
 78
   300
148
0.0
149
0.0
100
AcDbLayout
  1
Layout1
 70
     1
 71
     1
 10
0.0
 20
0.0
 11
12.0
 21
9.0
 12
0.0
 22
0.0
 32
0.0
 14
0.0
 24
0.0
 34
0.0
 15
0.0
 25
0.0
 35
0.0
146
0.0
 13
0.0
 23
0.0
 33
0.0
 16
1.0
 26
0.0
 36
0.0
 17
0.0
 27
1.0
 37
0.0
 76
     0
330
6C
  0
LAYOUT
  5
77
102
{ACAD_REACTORS
330
62
102
}
330
62
100
AcDbPlotSettings
  1

  2

  4

  6

 40
0.0
 41
0.0
 42
0.0
 43
0.0
 44
0.0
 45
0.0
 46
0.0
 47
0.0
 48
0.0
 49
0.0
140
0.0
141
0.0
142
1.0
143
1.0
 70
   688
 72
     0
 73
     0
 74
     5
  7

 75
    16
147
1.0
 76
     0
 77
     2
 78
   300
148
0.0
149
0.0
100
AcDbLayout
  1
Layout2
 70
     1
 71
     2
 10
0.0
 20
0.0
 11
12.0
 21
9.0
 12
0.0
 22
0.0
 32
0.0
 14
0.0
 24
0.0
 34
0.0
 15
0.0
 25
0.0
 35
0.0
146
0.0
 13
0.0
 23
0.0
 33
0.0
 16
1.0
 26
0.0
 36
0.0
 17
0.0
 27
1.0
 37
0.0
 76
     0
330
74
  0
LAYOUT
  5
73
102
{ACAD_REACTORS
330
62
102
}
330
62
100
AcDbPlotSettings
  1

  2

  4

  6

 40
0.0
 41
0.0
 42
0.0
 43
0.0
 44
0.0
 45
0.0
 46
0.0
 47
0.0
 48
0.0
 49
0.0
140
0.0
141
0.0
142
1.0
143
1.0
 70
  1712
 72
     0
 73
     0
 74
     0
  7

 75
     0
147
1.0
 76
     0
 77
     2
 78
   300
148
0.0
149
0.0
100
AcDbLayout
  1
Model
 70
     1
 71
     0
 10
0.0
 20
0.0
 11
12.0
 21
9.0
 12
0.0
 22
0.0
 32
0.0
 14
0.0
 24
0.0
 34
0.0
 15
0.0
 25
0.0
 35
0.0
146
0.0
 13
0.0
 23
0.0
 33
0.0
 16
1.0
 26
0.0
 36
0.0
 17
0.0
 27
1.0
 37
0.0
 76
     0
330
70
  0
MATERIAL
  5
19
102
{ACAD_XDICTIONARY
360
1A
102
}
102
{ACAD_REACTORS
330
10
102
}
330
10
100
AcDbMaterial
  1
ByBlock
 72
     0
 43
0.0208333333333333
 43
0.0
 43
0.0
 43
0.0
 43
0.0
 43
0.0208333333333333
 43
0.0
 43
0.0
 43
0.0
 43
0.0
 43
1.0
 43
0.0
 43
0.0
 43
0.0
 43
0.0
 43
1.0
 77
     0
 47
0.0208333333333333
 47
0.0
 47
0.0
 47
0.0
 47
0.0
 47
0.0208333333333333
 47
0.0
 47
0.0
 47
0.0
 47
0.0
 47
1.0
 47
0.0
 47
0.0
 47
0.0
 47
0.0
 47
1.0
171
     0
 49
0.0208333333333333
 49
0.0
 49
0.0
 49
0.0
 49
0.0
 49
0.0208333333333333
 49
0.0
 49
0.0
 49
0.0
 49
0.0
 49
1.0
 49
0.0
 49
0.0
 49
0.0
 49
0.0
 49
1.0
175
     0
142
0.0208333333333333
142
0.0
142
0.0
142
0.0
142
0.0
142
0.0208333333333333
142
0.0
142
0.0
142
0.0
142
0.0
142
1.0
142
0.0
142
0.0
142
0.0
142
0.0
142
1.0
179
     0
144
0.0208333333333333
144
0.0
144
0.0
144
0.0
144
0.0
144
0.0208333333333333
144
0.0
144
0.0
144
0.0
144
0.0
144
1.0
144
0.0
144
0.0
144
0.0
144
0.0
144
1.0
147
0.0208333333333333
147
0.0
147
0.0
147
0.0
147
0.0
147
0.0208333333333333
147
0.0
147
0.0
147
0.0
147
0.0
147
1.0
147
0.0
147
0.0
147
0.0
147
0.0
147
1.0
  0
MATERIAL
  5
11
102
{ACAD_XDICTIONARY
360
12
102
}
102
{ACAD_REACTORS
330
10
102
}
330
10
100
AcDbMaterial
  1
ByLayer
 72
     0
 43
0.0208333333333333
 43
0.0
 43
0.0
 43
0.0
 43
0.0
 43
0.0208333333333333
 43
0.0
 43
0.0
 43
0.0
 43
0.0
 43
1.0
 43
0.0
 43
0.0
 43
0.0
 43
0.0
 43
1.0
 77
     0
 47
0.0208333333333333
 47
0.0
 47
0.0
 47
0.0
 47
0.0
 47
0.0208333333333333
 47
0.0
 47
0.0
 47
0.0
 47
0.0
 47
1.0
 47
0.0
 47
0.0
 47
0.0
 47
0.0
 47
1.0
171
     0
 49
0.0208333333333333
 49
0.0
 49
0.0
 49
0.0
 49
0.0
 49
0.0208333333333333
 49
0.0
 49
0.0
 49
0.0
 49
0.0
 49
1.0
 49
0.0
 49
0.0
 49
0.0
 49
0.0
 49
1.0
175
     0
142
0.0208333333333333
142
0.0
142
0.0
142
0.0
142
0.0
142
0.0208333333333333
142
0.0
142
0.0
142
0.0
142
0.0
142
1.0
142
0.0
142
0.0
142
0.0
142
0.0
142
1.0
179
     0
144
0.0208333333333333
144
0.0
144
0.0
144
0.0
144
0.0
144
0.0208333333333333
144
0.0
144
0.0
144
0.0
144
0.0
144
1.0
144
0.0
144
0.0
144
0.0
144
0.0
144
1.0
147
0.0208333333333333
147
0.0
147
0.0
147
0.0
147
0.0
147
0.0208333333333333
147
0.0
147
0.0
147
0.0
147
0.0
147
1.0
147
0.0
147
0.0
147
0.0
147
0.0
147
1.0
  0
MATERIAL
  5
21
102
{ACAD_XDICTIONARY
360
22
102
}
102
{ACAD_REACTORS
330
10
102
}
330
10
100
AcDbMaterial
  1
Global
 72
     0
 43
0.0208333333333333
 43
0.0
 43
0.0
 43
0.0
 43
0.0
 43
0.0208333333333333
 43
0.0
 43
0.0
 43
0.0
 43
0.0
 43
1.0
 43
0.0
 43
0.0
 43
0.0
 43
0.0
 43
1.0
 77
     0
 47
0.0208333333333333
 47
0.0
 47
0.0
 47
0.0
 47
0.0
 47
0.0208333333333333
 47
0.0
 47
0.0
 47
0.0
 47
0.0
 47
1.0
 47
0.0
 47
0.0
 47
0.0
 47
0.0
 47
1.0
171
     0
 49
0.0208333333333333
 49
0.0
 49
0.0
 49
0.0
 49
0.0
 49
0.0208333333333333
 49
0.0
 49
0.0
 49
0.0
 49
0.0
 49
1.0
 49
0.0
 49
0.0
 49
0.0
 49
0.0
 49
1.0
175
     0
142
0.0208333333333333
142
0.0
142
0.0
142
0.0
142
0.0
142
0.0208333333333333
142
0.0
142
0.0
142
0.0
142
0.0
142
1.0
142
0.0
142
0.0
142
0.0
142
0.0
142
1.0
179
     0
144
0.0208333333333333
144
0.0
144
0.0
144
0.0
144
0.0
144
0.0208333333333333
144
0.0
144
0.0
144
0.0
144
0.0
144
1.0
144
0.0
144
0.0
144
0.0
144
0.0
144
1.0
147
0.0208333333333333
147
0.0
147
0.0
147
0.0
147
0.0
147
0.0208333333333333
147
0.0
147
0.0
147
0.0
147
0.0
147
1.0
147
0.0
147
0.0
147
0.0
147
0.0
147
1.0
  0
MLEADERSTYLE
  5
67
102
{ACAD_REACTORS
330
66
102
}
330
66
100
AcDbMLeaderStyle
179
     2
170
     2
171
     1
172
     0
 90
        2
 40
0.0
 41
0.0
173
     1
 91
-1056964608
340
5B
 92
       -2
290
     1
 42
0.09
291
     1
 43
0.36
  3
Standard
 44
0.18
300

342
55
174
     1
178
     6
175
     1
176
     0
 93
-1056964608
 45
0.18
292
     0
297
     0
 46
0.18
 94
-1056964608
 47
1.0
 49
1.0
140
1.0
293
     1
141
0.0
294
     1
177
     0
142
1.0
295
     1
296
     0
143
0.125
271
     0
272
     9
273
     9
298
     1
  0
MLINESTYLE
  5
60
102
{ACAD_REACTORS
330
5F
102
}
330
5F
100
AcDbMlineStyle
  2
STANDARD
 70
     0
  3

 62
   256
 51
90.0
 52
90.0
 71
     2
 49
0.5
 62
   256
  6
BYLAYER
 49
-0.5
 62
   256
  6
BYLAYER
  0
ACDBPLACEHOLDER
  5
F
102
{ACAD_REACTORS
330
E
102
}
330
E
  0
SCALE
  5
43
102
{ACAD_REACTORS
330
42
102
}
330
42
100
AcDbScale
 70
     0
300
1:1
140
1.0
141
1.0
290
     1
  0
SCALE
  5
44
102
{ACAD_REACTORS
330
42
102
}
330
42
100
AcDbScale
 70
     0
300
1/128" = 1'-0"
140
0.0078125
141
12.0
290
     0
  0
SCALE
  5
45
102
{ACAD_REACTORS
330
42
102
}
330
42
100
AcDbScale
 70
     0
300
1/64" = 1'-0"
140
0.015625
141
12.0
290
     0
  0
SCALE
  5
46
102
{ACAD_REACTORS
330
42
102
}
330
42
100
AcDbScale
 70
     0
300
1/32" = 1'-0"
140
0.03125
141
12.0
290
     0
  0
SCALE
  5
47
102
{ACAD_REACTORS
330
42
102
}
330
42
100
AcDbScale
 70
     0
300
1/16" = 1'-0"
140
0.0625
141
12.0
290
     0
  0
SCALE
  5
48
102
{ACAD_REACTORS
330
42
102
}
330
42
100
AcDbScale
 70
     0
300
3/32" = 1'-0"
140
0.09375
141
12.0
290
     0
  0
SCALE
  5
49
102
{ACAD_REACTORS
330
42
102
}
330
42
100
AcDbScale
 70
     0
300
1/8" = 1'-0"
140
0.125
141
12.0
290
     0
  0
SCALE
  5
4A
102
{ACAD_REACTORS
330
42
102
}
330
42
100
AcDbScale
 70
     0
300
3/16" = 1'-0"
140
0.1875
141
12.0
290
     0
  0
SCALE
  5
4B
102
{ACAD_REACTORS
330
42
102
}
330
42
100
AcDbScale
 70
     0
300
1/4" = 1'-0"
140
0.25
141
12.0
290
     0
  0
SCALE
  5
4C
102
{ACAD_REACTORS
330
42
102
}
330
42
100
AcDbScale
 70
     0
300
3/8" = 1'-0"
140
0.375
141
12.0
290
     0
  0
SCALE
  5
4D
102
{ACAD_REACTORS
330
42
102
}
330
42
100
AcDbScale
 70
     0
300
1/2" = 1'-0"
140
0.5
141
12.0
290
     0
  0
SCALE
  5
4E
102
{ACAD_REACTORS
330
42
102
}
330
42
100
AcDbScale
 70
     0
300
3/4" = 1'-0"
140
0.75
141
12.0
290
     0
  0
SCALE
  5
4F
102
{ACAD_REACTORS
330
42
102
}
330
42
100
AcDbScale
 70
     0
300
1" = 1'-0"
140
1.0
141
12.0
290
     0
  0
SCALE
  5
50
102
{ACAD_REACTORS
330
42
102
}
330
42
100
AcDbScale
 70
     0
300
1-1/2" = 1'-0"
140
1.5
141
12.0
290
     0
  0
SCALE
  5
51
102
{ACAD_REACTORS
330
42
102
}
330
42
100
AcDbScale
 70
     0
300
3" = 1'-0"
140
3.0
141
12.0
290
     0
  0
SCALE
  5
52
102
{ACAD_REACTORS
330
42
102
}
330
42
100
AcDbScale
 70
     0
300
6" = 1'-0"
140
6.0
141
12.0
290
     0
  0
SCALE
  5
53
102
{ACAD_REACTORS
330
42
102
}
330
42
100
AcDbScale
 70
     0
300
1'-0" = 1'-0"
140
12.0
141
12.0
290
     0
  0
ACDBSECTIONVIEWSTYLE
  5
69
102
{ACAD_REACTORS
330
68
102
}
330
68
100
AcDbModelDocViewStyle
 70
     0
  3
Imperial24
290
     1
300
Imperial24
 90
        0
100
AcDbSectionViewStyle
 70
     0
 71
     0
 90
       78
 71
     1
340
55
 62
   256
 40
0.24
340
0
340
0
 62
   256
 40
0.24
300
I, O, Q, S, X, Z
 40
0.48
 90
        3
 40
0.18
 90
        1
 71
     2
340
5D
 90
       25
 62
   256
340
5D
 90
       50
 62
   256
 40
0.24
 40
0.0
 40
0.24
 71
     3
340
55
 62
   256
 40
0.24
 90
        1
 40
0.75
 90
        1
300
%<\AcVar ViewType \f "%tc1">% %<\AcVar ViewSectionStartId>%-%<\AcVar ViewSectionEndId>%\PSCALE %<\AcVar ViewScale \f "%sn">%
 71
     4
 62
   256
 62
   257
300
ANSI31
 40
1.0
 90
        0
290
     0
290
     0
 90
        6
 40
0.0
 40
1.570796326794896
 40
0.2617993877991494
 40
1.308996938995747
 40
-0.2617993877991494
 40
1.832595714594046
  0
TABLESTYLE
  5
65
102
{ACAD_XDICTIONARY
360
F3
102
}
102
{ACAD_REACTORS
330
64
102
}
330
64
100
AcDbTableStyle
280
     0
  3
Standard
 70
     0
 71
     0
 40
0.06
 41
0.06
280
     0
281
     0
  7
Standard
140
0.18
170
     2
 62
     0
 63
     7
283
     0
 90
      512
 91
        0
  1

274
    -2
284
     1
 64
     0
275
    -2
285
     1
 65
     0
276
    -2
286
     1
 66
     0
277
    -2
287
     1
 67
     0
278
    -2
288
     1
 68
     0
279
    -2
289
     1
 69
     0
  7
Standard
140
0.25
170
     5
 62
     0
 63
     7
283
     0
 90
      512
 91
        0
  1

274
    -2
284
     1
 64
     0
275
    -2
285
     1
 65
     0
276
    -2
286
     1
 66
     0
277
    -2
287
     1
 67
     0
278
    -2
288
     1
 68
     0
279
    -2
289
     1
 69
     0
  7
Standard
140
0.18
170
     5
 62
     0
 63
     7
283
     0
 90
      512
 91
        0
  1

274
    -2
284
     1
 64
     0
275
    -2
285
     1
 65
     0
276
    -2
286
     1
 66
     0
277
    -2
287
     1
 67
     0
278
    -2
288
     1
 68
     0
279
    -2
289
     1
 69
     0
  0
VISUALSTYLE
  5
2F
102
{ACAD_REACTORS
330
29
102
}
330
29
100
AcDbVisualStyle
  2
2dWireframe
 70
     4
177
     3
291
     0
 70
    58
 90
        0
176
     1
 90
        2
176
     1
 90
        0
176
     1
 90
        0
176
     1
 40
0.6
176
     1
 40
30.0
176
     1
 62
     7
420
 16777215
176
     1
 90
        1
176
     1
 90
        4
176
     1
 62
     7
176
     1
 62
   257
176
     1
 90
        1
176
     1
 90
        1
176
     1
 40
1.0
176
     1
 90
        0
176
     1
 62
   257
176
     1
 40
1.0
176
     1
 90
        1
176
     1
 90
        6
176
     1
 90
        2
176
     1
 62
     7
176
     1
 90
        5
176
     1
 90
        0
176
     1
 90
        0
176
     1
290
     0
176
     1
 90
        1
176
     1
 40
0.0
176
     1
 90
        0
176
     1
290
     1
176
     1
290
     1
176
     1
290
     0
176
     1
290
     0
176
     1
290
     0
176
     1
290
     0
176
     1
290
     0
176
     1
290
     0
176
     1
290
     0
176
     1
 90
       50
176
     1
 40
0.0
176
     1
 40
1.0
176
     1
 90
        0
176
     1
 62
    18
420
        0
176
     1
 90
       50
176
     1
 90
        3
176
     1
 62
     5
420
      255
176
     1
290
     0
176
     1
 90
       50
176
     1
 90
       50
176
     1
 90
       50
176
     1
290
     0
176
     1
 90
       50
176
     1
 62
   256
176
     0
 40
1.0
176
     0
 90
        2
176
     1
  1
strokes_ogs.tif
176
     1
290
     0
176
     1
 40
1.0
176
     1
 40
1.0
176
     1
  0
VISUALSTYLE
  5
2E
102
{ACAD_REACTORS
330
29
102
}
330
29
100
AcDbVisualStyle
  2
Basic
 70
     7
177
     3
291
     1
 70
    58
 90
        1
176
     1
 90
        0
176
     1
 90
        1
176
     1
 90
        0
176
     1
 40
0.6
176
     1
 40
30.0
176
     1
 62
     7
420
 16777215
176
     1
 90
        0
176
     1
 90
        4
176
     1
 62
     7
176
     1
 62
   257
176
     1
 90
        1
176
     1
 90
        1
176
     1
 40
1.0
176
     1
 90
        8
176
     1
 62
     7
176
     1
 40
1.0
176
     1
 90
        1
176
     1
 90
        6
176
     1
 90
        2
176
     1
 62
     7
176
     1
 90
        5
176
     1
 90
        0
176
     1
 90
        0
176
     1
290
     0
176
     1
 90
        1
176
     1
 40
0.0
176
     1
 90
        0
176
     1
290
     0
176
     1
290
     1
176
     1
290
     1
176
     1
290
     0
176
     1
290
     0
176
     1
290
     0
176
     1
290
     0
176
     1
290
     0
176
     1
290
     0
176
     1
 90
       50
176
     1
 40
0.0
176
     1
 40
1.0
176
     1
 90
        0
176
     1
 62
    18
420
        0
176
     1
 90
       50
176
     1
 90
        3
176
     1
 62
     5
420
      255
176
     1
290
     0
176
     1
 90
       50
176
     1
 90
       50
176
     1
 90
       50
176
     1
290
     0
176
     1
 90
       50
176
     1
 62
   256
176
     0
 40
1.0
176
     0
 90
        2
176
     1
  1
strokes_ogs.tif
176
     1
290
     0
176
     1
 40
1.0
176
     1
 40
1.0
176
     1
  0
VISUALSTYLE
  5
35
102
{ACAD_REACTORS
330
29
102
}
330
29
100
AcDbVisualStyle
  2
Brighten
 70
    12
177
     3
291
     1
 70
    58
 90
        2
176
     1
 90
        2
176
     1
 90
        0
176
     1
 90
        0
176
     1
 40
0.6
176
     1
 40
30.0
176
     1
 62
     7
420
 16777215
176
     1
 90
        1
176
     1
 90
        4
176
     1
 62
     7
176
     1
 62
   257
176
     1
 90
        1
176
     1
 90
        1
176
     1
 40
1.0
176
     1
 90
        8
176
     1
 62
     7
176
     1
 40
1.0
176
     1
 90
        1
176
     1
 90
        6
176
     1
 90
        2
176
     1
 62
     7
176
     1
 90
        5
176
     1
 90
        0
176
     1
 90
        0
176
     1
290
     0
176
     1
 90
        1
176
     1
 40
50.0
176
     1
 90
        0
176
     1
290
     0
176
     1
290
     1
176
     1
290
     1
176
     1
290
     0
176
     1
290
     0
176
     1
290
     0
176
     1
290
     0
176
     1
290
     0
176
     1
290
     0
176
     1
 90
       50
176
     1
 40
0.0
176
     1
 40
1.0
176
     1
 90
        0
176
     1
 62
    18
420
        0
176
     1
 90
       50
176
     1
 90
        3
176
     1
 62
     5
420
      255
176
     1
290
     0
176
     1
 90
       50
176
     1
 90
       50
176
     1
 90
       50
176
     1
290
     0
176
     1
 90
       50
176
     1
 62
   256
176
     0
 40
1.0
176
     0
 90
        2
176
     1
  1
strokes_ogs.tif
176
     1
290
     0
176
     1
 40
1.0
176
     1
 40
1.0
176
     1
  0
VISUALSTYLE
  5
39
102
{ACAD_REACTORS
330
29
102
}
330
29
100
AcDbVisualStyle
  2
ColorChange
 70
    16
177
     3
291
     1
 70
    58
 90
        2
176
     1
 90
        2
176
     1
 90
        3
176
     1
 90
        0
176
     1
 40
0.6
176
     1
 40
30.0
176
     1
 62
     8
420
  8421504
176
     1
 90
        1
176
     1
 90
        4
176
     1
 62
     7
176
     1
 62
   257
176
     1
 90
        1
176
     1
 90
        1
176
     1
 40
1.0
176
     1
 90
        8
176
     1
 62
     8
420
  8421504
176
     1
 40
1.0
176
     1
 90
        1
176
     1
 90
        6
176
     1
 90
        2
176
     1
 62
     7
176
     1
 90
        5
176
     1
 90
        0
176
     1
 90
        0
176
     1
290
     0
176
     1
 90
        1
176
     1
 40
0.0
176
     1
 90
        0
176
     1
290
     0
176
     1
290
     1
176
     1
290
     1
176
     1
290
     0
176
     1
290
     0
176
     1
290
     0
176
     1
290
     0
176
     1
290
     0
176
     1
290
     0
176
     1
 90
       50
176
     1
 40
0.0
176
     1
 40
1.0
176
     1
 90
        0
176
     1
 62
    18
420
        0
176
     1
 90
       50
176
     1
 90
        3
176
     1
 62
     5
420
      255
176
     1
290
     0
176
     1
 90
       50
176
     1
 90
       50
176
     1
 90
       50
176
     1
290
     0
176
     1
 90
       50
176
     1
 62
   256
176
     0
 40
1.0
176
     0
 90
        2
176
     1
  1
strokes_ogs.tif
176
     1
290
     0
176
     1
 40
1.0
176
     1
 40
1.0
176
     1
  0
VISUALSTYLE
  5
32
102
{ACAD_REACTORS
330
29
102
}
330
29
100
AcDbVisualStyle
  2
Conceptual
 70
     9
177
     3
291
     0
 70
    58
 90
        3
176
     1
 90
        2
176
     1
 90
        0
176
     1
 90
        0
176
     1
 40
0.6
176
     1
 40
30.0
176
     1
 62
     7
420
 16777215
176
     1
 90
        2
176
     1
 90
        2
176
     1
 62
     7
176
     1
 62
   257
176
     1
 90
        1
176
     1
 90
        1
176
     1
 40
179.0
176
     1
 90
        8
176
     1
 62
     7
176
     1
 40
1.0
176
     1
 90
        1
176
     1
 90
        6
176
     1
 90
        2
176
     1
 62
     7
176
     1
 90
        3
176
     1
 90
        0
176
     1
 90
        0
176
     1
290
     0
176
     1
 90
        1
176
     1
 40
0.0
176
     1
 90
        0
176
     1
290
     0
176
     1
290
     1
176
     1
290
     1
176
     1
290
     0
176
     1
290
     0
176
     1
290
     0
176
     1
290
     0
176
     1
290
     0
176
     1
290
     0
176
     1
 90
       50
176
     1
 40
0.0
176
     1
 40
1.0
176
     1
 90
        0
176
     1
 62
    18
420
        0
176
     1
 90
       50
176
     1
 90
        3
176
     1
 62
     5
420
      255
176
     1
290
     0
176
     1
 90
       50
176
     1
 90
       50
176
     1
 90
       50
176
     1
290
     0
176
     1
 90
       50
176
     1
 62
   256
176
     0
 40
1.0
176
     0
 90
        2
176
     1
  1
strokes_ogs.tif
176
     1
290
     0
176
     1
 40
1.0
176
     1
 40
1.0
176
     1
  0
VISUALSTYLE
  5
34
102
{ACAD_REACTORS
330
29
102
}
330
29
100
AcDbVisualStyle
  2
Dim
 70
    11
177
     3
291
     1
 70
    58
 90
        2
176
     1
 90
        2
176
     1
 90
        0
176
     1
 90
        0
176
     1
 40
0.6
176
     1
 40
30.0
176
     1
 62
     7
420
 16777215
176
     1
 90
        1
176
     1
 90
        4
176
     1
 62
     7
176
     1
 62
   257
176
     1
 90
        1
176
     1
 90
        1
176
     1
 40
1.0
176
     1
 90
        8
176
     1
 62
     7
176
     1
 40
1.0
176
     1
 90
        1
176
     1
 90
        6
176
     1
 90
        2
176
     1
 62
     7
176
     1
 90
        5
176
     1
 90
        0
176
     1
 90
        0
176
     1
290
     0
176
     1
 90
        1
176
     1
 40
-50.0
176
     1
 90
        0
176
     1
290
     0
176
     1
290
     1
176
     1
290
     1
176
     1
290
     0
176
     1
290
     0
176
     1
290
     0
176
     1
290
     0
176
     1
290
     0
176
     1
290
     0
176
     1
 90
       50
176
     1
 40
0.0
176
     1
 40
1.0
176
     1
 90
        0
176
     1
 62
    18
420
        0
176
     1
 90
       50
176
     1
 90
        3
176
     1
 62
     5
420
      255
176
     1
290
     0
176
     1
 90
       50
176
     1
 90
       50
176
     1
 90
       50
176
     1
290
     0
176
     1
 90
       50
176
     1
 62
   256
176
     0
 40
1.0
176
     0
 90
        2
176
     1
  1
strokes_ogs.tif
176
     1
290
     0
176
     1
 40
1.0
176
     1
 40
1.0
176
     1
  0
VISUALSTYLE
  5
41
102
{ACAD_REACTORS
330
29
102
}
330
29
100
AcDbVisualStyle
  2
EdgeColorOff
 70
    22
177
     3
291
     1
 70
    58
 90
        2
176
     0
 90
        2
176
     0
 90
        0
176
     0
 90
        0
176
     0
 40
0.6
176
     0
 40
30.0
176
     0
 62
     7
420
 16777215
176
     0
 90
        1
176
     0
 90
        4
176
     0
 62
     7
176
     0
 62
   257
176
     0
 90
        1
176
     0
 90
        1
176
     0
 40
1.0
176
     0
 90
        8
176
     2
 62
     7
176
     0
 40
1.0
176
     0
 90
        1
176
     0
 90
        6
176
     0
 90
        2
176
     0
 62
     7
176
     0
 90
        5
176
     0
 90
        0
176
     0
 90
        0
176
     0
290
     0
176
     0
 90
        1
176
     0
 40
0.0
176
     0
 90
        0
176
     0
290
     0
176
     0
290
     1
176
     0
290
     1
176
     0
290
     0
176
     0
290
     0
176
     0
290
     0
176
     0
290
     0
176
     0
290
     0
176
     0
290
     0
176
     0
 90
       50
176
     0
 40
0.0
176
     0
 40
1.0
176
     0
 90
        0
176
     0
 62
    18
420
        0
176
     0
 90
       50
176
     0
 90
        3
176
     0
 62
     5
420
      255
176
     0
290
     0
176
     0
 90
       50
176
     0
 90
       50
176
     0
 90
       50
176
     0
290
     0
176
     0
 90
       50
176
     0
 62
   256
176
     0
 40
1.0
176
     0
 90
        2
176
     0
  1
strokes_ogs.tif
176
     0
290
     0
176
     0
 40
1.0
176
     0
 40
1.0
176
     0
  0
VISUALSTYLE
  5
38
102
{ACAD_REACTORS
330
29
102
}
330
29
100
AcDbVisualStyle
  2
Facepattern
 70
    15
177
     3
291
     1
 70
    58
 90
        2
176
     1
 90
        2
176
     1
 90
        0
176
     1
 90
        0
176
     1
 40
0.6
176
     1
 40
30.0
176
     1
 62
     7
420
 16777215
176
     1
 90
        1
176
     1
 90
        4
176
     1
 62
     7
176
     1
 62
   257
176
     1
 90
        1
176
     1
 90
        1
176
     1
 40
1.0
176
     1
 90
        8
176
     1
 62
     7
176
     1
 40
1.0
176
     1
 90
        1
176
     1
 90
        6
176
     1
 90
        2
176
     1
 62
     7
176
     1
 90
        5
176
     1
 90
        0
176
     1
 90
        0
176
     1
290
     0
176
     1
 90
        1
176
     1
 40
0.0
176
     1
 90
        0
176
     1
290
     0
176
     1
290
     1
176
     1
290
     1
176
     1
290
     0
176
     1
290
     0
176
     1
290
     0
176
     1
290
     0
176
     1
290
     0
176
     1
290
     0
176
     1
 90
       50
176
     1
 40
0.0
176
     1
 40
1.0
176
     1
 90
        0
176
     1
 62
    18
420
        0
176
     1
 90
       50
176
     1
 90
        3
176
     1
 62
     5
420
      255
176
     1
290
     0
176
     1
 90
       50
176
     1
 90
       50
176
     1
 90
       50
176
     1
290
     0
176
     1
 90
       50
176
     1
 62
   256
176
     0
 40
1.0
176
     0
 90
        2
176
     1
  1
strokes_ogs.tif
176
     1
290
     0
176
     1
 40
1.0
176
     1
 40
1.0
176
     1
  0
VISUALSTYLE
  5
2A
102
{ACAD_REACTORS
330
29
102
}
330
29
100
AcDbVisualStyle
  2
Flat
 70
     0
177
     3
291
     1
 70
    58
 90
        2
176
     1
 90
        1
176
     1
 90
        1
176
     1
 90
        2
176
     1
 40
0.6
176
     1
 40
30.0
176
     1
 62
     7
420
 16777215
176
     1
 90
        0
176
     1
 90
        0
176
     1
 62
     7
176
     1
 62
   257
176
     1
 90
        1
176
     1
 90
        1
176
     1
 40
1.0
176
     1
 90
        8
176
     1
 62
     7
176
     1
 40
1.0
176
     1
 90
        1
176
     1
 90
        6
176
     1
 90
        2
176
     1
 62
     7
176
     1
 90
        5
176
     1
 90
        0
176
     1
 90
        0
176
     1
290
     0
176
     1
 90
       13
176
     1
 40
0.0
176
     1
 90
        0
176
     1
290
     0
176
     1
290
     1
176
     1
290
     1
176
     1
290
     0
176
     1
290
     0
176
     1
290
     0
176
     1
290
     0
176
     1
290
     0
176
     1
290
     0
176
     1
 90
       50
176
     1
 40
0.0
176
     1
 40
1.0
176
     1
 90
        0
176
     1
 62
    18
420
        0
176
     1
 90
       50
176
     1
 90
        3
176
     1
 62
     5
420
      255
176
     1
290
     0
176
     1
 90
       50
176
     1
 90
       50
176
     1
 90
       50
176
     1
290
     0
176
     1
 90
       50
176
     1
 62
   256
176
     0
 40
1.0
176
     0
 90
        2
176
     1
  1
strokes_ogs.tif
176
     1
290
     0
176
     1
 40
1.0
176
     1
 40
1.0
176
     1
  0
VISUALSTYLE
  5
2B
102
{ACAD_REACTORS
330
29
102
}
330
29
100
AcDbVisualStyle
  2
FlatWithEdges
 70
     1
177
     3
291
     1
 70
    58
 90
        2
176
     1
 90
        1
176
     1
 90
        1
176
     1
 90
        2
176
     1
 40
0.6
176
     1
 40
30.0
176
     1
 62
     7
420
 16777215
176
     1
 90
        1
176
     1
 90
        0
176
     1
 62
     7
176
     1
 62
   257
176
     1
 90
        1
176
     1
 90
        1
176
     1
 40
1.0
176
     1
 90
        0
176
     1
 62
   257
176
     1
 40
1.0
176
     1
 90
        1
176
     1
 90
        6
176
     1
 90
        2
176
     1
 62
     7
176
     1
 90
        5
176
     1
 90
        0
176
     1
 90
        0
176
     1
290
     0
176
     1
 90
       13
176
     1
 40
0.0
176
     1
 90
        0
176
     1
290
     0
176
     1
290
     1
176
     1
290
     1
176
     1
290
     0
176
     1
290
     0
176
     1
290
     0
176
     1
290
     0
176
     1
290
     0
176
     1
290
     0
176
     1
 90
       50
176
     1
 40
0.0
176
     1
 40
1.0
176
     1
 90
        0
176
     1
 62
    18
420
        0
176
     1
 90
       50
176
     1
 90
        3
176
     1
 62
     5
420
      255
176
     1
290
     0
176
     1
 90
       50
176
     1
 90
       50
176
     1
 90
       50
176
     1
290
     0
176
     1
 90
       50
176
     1
 62
   256
176
     0
 40
1.0
176
     0
 90
        2
176
     1
  1
strokes_ogs.tif
176
     1
290
     0
176
     1
 40
1.0
176
     1
 40
1.0
176
     1
  0
VISUALSTYLE
  5
2C
102
{ACAD_REACTORS
330
29
102
}
330
29
100
AcDbVisualStyle
  2
Gouraud
 70
     2
177
     3
291
     1
 70
    58
 90
        2
176
     1
 90
        2
176
     1
 90
        1
176
     1
 90
        2
176
     1
 40
0.6
176
     1
 40
30.0
176
     1
 62
     7
420
 16777215
176
     1
 90
        0
176
     1
 90
        0
176
     1
 62
     7
176
     1
 62
   257
176
     1
 90
        1
176
     1
 90
        1
176
     1
 40
1.0
176
     1
 90
        0
176
     1
 62
     7
176
     1
 40
1.0
176
     1
 90
        1
176
     1
 90
        6
176
     1
 90
        2
176
     1
 62
     7
176
     1
 90
        5
176
     1
 90
        0
176
     1
 90
        0
176
     1
290
     0
176
     1
 90
       13
176
     1
 40
0.0
176
     1
 90
        0
176
     1
290
     0
176
     1
290
     1
176
     1
290
     1
176
     1
290
     0
176
     1
290
     0
176
     1
290
     0
176
     1
290
     0
176
     1
290
     0
176
     1
290
     0
176
     1
 90
       50
176
     1
 40
0.0
176
     1
 40
1.0
176
     1
 90
        0
176
     1
 62
    18
420
        0
176
     1
 90
       50
176
     1
 90
        3
176
     1
 62
     5
420
      255
176
     1
290
     0
176
     1
 90
       50
176
     1
 90
       50
176
     1
 90
       50
176
     1
290
     0
176
     1
 90
       50
176
     1
 62
   256
176
     0
 40
1.0
176
     0
 90
        2
176
     1
  1
strokes_ogs.tif
176
     1
290
     0
176
     1
 40
1.0
176
     1
 40
1.0
176
     1
  0
VISUALSTYLE
  5
2D
102
{ACAD_REACTORS
330
29
102
}
330
29
100
AcDbVisualStyle
  2
GouraudWithEdges
 70
     3
177
     3
291
     1
 70
    58
 90
        2
176
     1
 90
        2
176
     1
 90
        1
176
     1
 90
        2
176
     1
 40
0.6
176
     1
 40
30.0
176
     1
 62
     7
420
 16777215
176
     1
 90
        1
176
     1
 90
        0
176
     1
 62
     7
176
     1
 62
   257
176
     1
 90
        1
176
     1
 90
        1
176
     1
 40
1.0
176
     1
 90
        0
176
     1
 62
   257
176
     1
 40
1.0
176
     1
 90
        1
176
     1
 90
        6
176
     1
 90
        2
176
     1
 62
     7
176
     1
 90
        5
176
     1
 90
        0
176
     1
 90
        0
176
     1
290
     0
176
     1
 90
       13
176
     1
 40
0.0
176
     1
 90
        0
176
     1
290
     0
176
     1
290
     1
176
     1
290
     1
176
     1
290
     0
176
     1
290
     0
176
     1
290
     0
176
     1
290
     0
176
     1
290
     0
176
     1
290
     0
176
     1
 90
       50
176
     1
 40
0.0
176
     1
 40
1.0
176
     1
 90
        0
176
     1
 62
    18
420
        0
176
     1
 90
       50
176
     1
 90
        3
176
     1
 62
     5
420
      255
176
     1
290
     0
176
     1
 90
       50
176
     1
 90
       50
176
     1
 90
       50
176
     1
290
     0
176
     1
 90
       50
176
     1
 62
   256
176
     0
 40
1.0
176
     0
 90
        2
176
     1
  1
strokes_ogs.tif
176
     1
290
     0
176
     1
 40
1.0
176
     1
 40
1.0
176
     1
  0
VISUALSTYLE
  5
31
102
{ACAD_REACTORS
330
29
102
}
330
29
100
AcDbVisualStyle
  2
Hidden
 70
     6
177
     3
291
     0
 70
    58
 90
        1
176
     1
 90
        2
176
     1
 90
        2
176
     1
 90
        0
176
     1
 40
0.6
176
     1
 40
30.0
176
     1
 62
     7
420
 16777215
176
     1
 90
        2
176
     1
 90
        2
176
     1
 62
     7
176
     1
 62
   257
176
     1
 90
        2
176
     1
 90
        1
176
     1
 40
40.0
176
     1
 90
        0
176
     1
 62
   257
176
     1
 40
1.0
176
     1
 90
        1
176
     1
 90
        6
176
     1
 90
        2
176
     1
 62
     7
176
     1
 90
        3
176
     1
 90
        0
176
     1
 90
        0
176
     1
290
     0
176
     1
 90
        1
176
     1
 40
0.0
176
     1
 90
        0
176
     1
290
     0
176
     1
290
     1
176
     1
290
     1
176
     1
290
     0
176
     1
290
     0
176
     1
290
     0
176
     1
290
     0
176
     1
290
     0
176
     1
290
     0
176
     1
 90
       50
176
     1
 40
0.0
176
     1
 40
1.0
176
     1
 90
        0
176
     1
 62
    18
420
        0
176
     1
 90
       50
176
     1
 90
        3
176
     1
 62
     5
420
      255
176
     1
290
     0
176
     1
 90
       50
176
     1
 90
       50
176
     1
 90
       50
176
     1
290
     0
176
     1
 90
       50
176
     1
 62
   256
176
     0
 40
1.0
176
     0
 90
        2
176
     1
  1
strokes_ogs.tif
176
     1
290
     0
176
     1
 40
1.0
176
     1
 40
1.0
176
     1
  0
VISUALSTYLE
  5
3F
102
{ACAD_REACTORS
330
29
102
}
330
29
100
AcDbVisualStyle
  2
JitterOff
 70
    20
177
     3
291
     1
 70
    58
 90
        2
176
     0
 90
        2
176
     0
 90
        0
176
     0
 90
        0
176
     0
 40
0.6
176
     0
 40
30.0
176
     0
 62
     7
420
 16777215
176
     0
 90
        1
176
     0
 90
        4
176
     0
 62
     7
176
     0
 62
   257
176
     0
 90
        1
176
     0
 90
        1
176
     0
 40
1.0
176
     0
 90
       10
176
     2
 62
     7
176
     0
 40
1.0
176
     0
 90
        1
176
     0
 90
        6
176
     0
 90
        2
176
     0
 62
     7
176
     0
 90
        5
176
     0
 90
        0
176
     0
 90
        0
176
     0
290
     0
176
     0
 90
        1
176
     0
 40
0.0
176
     0
 90
        0
176
     0
290
     0
176
     0
290
     1
176
     0
290
     1
176
     0
290
     0
176
     0
290
     0
176
     0
290
     0
176
     0
290
     0
176
     0
290
     0
176
     0
290
     0
176
     0
 90
       50
176
     0
 40
0.0
176
     0
 40
1.0
176
     0
 90
        0
176
     0
 62
    18
420
        0
176
     0
 90
       50
176
     0
 90
        3
176
     0
 62
     5
420
      255
176
     0
290
     0
176
     0
 90
       50
176
     0
 90
       50
176
     0
 90
       50
176
     0
290
     0
176
     0
 90
       50
176
     0
 62
   256
176
     0
 40
1.0
176
     0
 90
        2
176
     0
  1
strokes_ogs.tif
176
     0
290
     0
176
     0
 40
1.0
176
     0
 40
1.0
176
     0
  0
VISUALSTYLE
  5
37
102
{ACAD_REACTORS
330
29
102
}
330
29
100
AcDbVisualStyle
  2
Linepattern
 70
    14
177
     3
291
     1
 70
    58
 90
        2
176
     1
 90
        2
176
     1
 90
        0
176
     1
 90
        0
176
     1
 40
0.6
176
     1
 40
30.0
176
     1
 62
     7
420
 16777215
176
     1
 90
        1
176
     1
 90
        4
176
     1
 62
     7
176
     1
 62
   257
176
     1
 90
        7
176
     1
 90
        7
176
     1
 40
1.0
176
     1
 90
        8
176
     1
 62
     7
176
     1
 40
1.0
176
     1
 90
        1
176
     1
 90
        6
176
     1
 90
        2
176
     1
 62
     7
176
     1
 90
        5
176
     1
 90
        0
176
     1
 90
        0
176
     1
290
     0
176
     1
 90
        1
176
     1
 40
0.0
176
     1
 90
        0
176
     1
290
     0
176
     1
290
     1
176
     1
290
     1
176
     1
290
     0
176
     1
290
     0
176
     1
290
     0
176
     1
290
     0
176
     1
290
     0
176
     1
290
     0
176
     1
 90
       50
176
     1
 40
0.0
176
     1
 40
1.0
176
     1
 90
        0
176
     1
 62
    18
420
        0
176
     1
 90
       50
176
     1
 90
        3
176
     1
 62
     5
420
      255
176
     1
290
     0
176
     1
 90
       50
176
     1
 90
       50
176
     1
 90
       50
176
     1
290
     0
176
     1
 90
       50
176
     1
 62
   256
176
     0
 40
1.0
176
     0
 90
        2
176
     1
  1
strokes_ogs.tif
176
     1
290
     0
176
     1
 40
1.0
176
     1
 40
1.0
176
     1
  0
VISUALSTYLE
  5
40
102
{ACAD_REACTORS
330
29
102
}
330
29
100
AcDbVisualStyle
  2
OverhangOff
 70
    21
177
     3
291
     1
 70
    58
 90
        2
176
     0
 90
        2
176
     0
 90
        0
176
     0
 90
        0
176
     0
 40
0.6
176
     0
 40
30.0
176
     0
 62
     7
420
 16777215
176
     0
 90
        1
176
     0
 90
        4
176
     0
 62
     7
176
     0
 62
   257
176
     0
 90
        1
176
     0
 90
        1
176
     0
 40
1.0
176
     0
 90
        9
176
     2
 62
     7
176
     0
 40
1.0
176
     0
 90
        1
176
     0
 90
        6
176
     0
 90
        2
176
     0
 62
     7
176
     0
 90
        5
176
     0
 90
        0
176
     0
 90
        0
176
     0
290
     0
176
     0
 90
        1
176
     0
 40
0.0
176
     0
 90
        0
176
     0
290
     0
176
     0
290
     1
176
     0
290
     1
176
     0
290
     0
176
     0
290
     0
176
     0
290
     0
176
     0
290
     0
176
     0
290
     0
176
     0
290
     0
176
     0
 90
       50
176
     0
 40
0.0
176
     0
 40
1.0
176
     0
 90
        0
176
     0
 62
    18
420
        0
176
     0
 90
       50
176
     0
 90
        3
176
     0
 62
     5
420
      255
176
     0
290
     0
176
     0
 90
       50
176
     0
 90
       50
176
     0
 90
       50
176
     0
290
     0
176
     0
 90
       50
176
     0
 62
   256
176
     0
 40
1.0
176
     0
 90
        2
176
     0
  1
strokes_ogs.tif
176
     0
290
     0
176
     0
 40
1.0
176
     0
 40
1.0
176
     0
  0
VISUALSTYLE
  5
33
102
{ACAD_REACTORS
330
29
102
}
330
29
100
AcDbVisualStyle
  2
Realistic
 70
     8
177
     3
291
     0
 70
    58
 90
        2
176
     1
 90
        3
176
     1
 90
        0
176
     1
 90
        2
176
     1
 40
0.6
176
     1
 40
30.0
176
     1
 62
     7
420
 16777215
176
     1
 90
        0
176
     1
 90
        0
176
     1
 62
     7
176
     1
 62
   257
176
     1
 90
        1
176
     1
 90
        1
176
     1
 40
1.0
176
     1
 90
        8
176
     1
 62
   257
176
     1
 40
1.0
176
     1
 90
        1
176
     1
 90
        6
176
     1
 90
        2
176
     1
 62
     7
176
     1
 90
        3
176
     1
 90
        0
176
     1
 90
        0
176
     1
290
     0
176
     1
 90
       13
176
     1
 40
0.0
176
     1
 90
        0
176
     1
290
     0
176
     1
290
     1
176
     1
290
     1
176
     1
290
     0
176
     1
290
     0
176
     1
290
     0
176
     1
290
     0
176
     1
290
     0
176
     1
290
     0
176
     1
 90
       50
176
     1
 40
0.0
176
     1
 40
1.0
176
     1
 90
        0
176
     1
 62
    18
420
        0
176
     1
 90
       50
176
     1
 90
        3
176
     1
 62
     5
420
      255
176
     1
290
     0
176
     1
 90
       50
176
     1
 90
       50
176
     1
 90
       50
176
     1
290
     0
176
     1
 90
       50
176
     1
 62
   256
176
     0
 40
1.0
176
     0
 90
        2
176
     1
  1
strokes_ogs.tif
176
     1
290
     0
176
     1
 40
1.0
176
     1
 40
1.0
176
     1
  0
VISUALSTYLE
  5
3E
102
{ACAD_REACTORS
330
29
102
}
330
29
100
AcDbVisualStyle
  2
Shaded
 70
    27
177
     3
291
     0
 70
    58
 90
        2
176
     1
 90
        2
176
     1
 90
        1
176
     1
 90
        2
176
     1
 40
0.6
176
     1
 40
30.0
176
     1
 62
     7
420
 16777215
176
     1
 90
        0
176
     1
 90
        4
176
     1
 62
     7
176
     1
 62
   257
176
     1
 90
        1
176
     1
 90
        1
176
     1
 40
1.0
176
     1
 90
        8
176
     1
 62
   257
176
     1
 40
1.0
176
     1
 90
        1
176
     1
 90
        6
176
     1
 90
        2
176
     1
 62
     8
420
  7895160
176
     1
 90
        3
176
     1
 90
        0
176
     1
 90
        0
176
     1
290
     0
176
     1
 90
        5
176
     1
 40
0.0
176
     1
 90
        0
176
     1
290
     0
176
     1
290
     1
176
     1
290
     1
176
     1
290
     0
176
     1
290
     0
176
     1
290
     0
176
     1
290
     0
176
     1
290
     0
176
     1
290
     0
176
     1
 90
       50
176
     1
 40
0.0
176
     1
 40
1.0
176
     1
 90
        0
176
     1
 62
    18
420
        0
176
     1
 90
       50
176
     1
 90
        3
176
     1
 62
     5
420
      255
176
     1
290
     0
176
     1
 90
       50
176
     1
 90
       50
176
     1
 90
       50
176
     1
290
     0
176
     1
 90
       50
176
     1
 62
   256
176
     0
 40
1.0
176
     0
 90
        2
176
     1
  1
strokes_ogs.tif
176
     1
290
     0
176
     1
 40
1.0
176
     1
 40
1.0
176
     1
  0
VISUALSTYLE
  5
3D
102
{ACAD_REACTORS
330
29
102
}
330
29
100
AcDbVisualStyle
  2
Shaded with edges
 70
    26
177
     3
291
     0
 70
    58
 90
        2
176
     1
 90
        2
176
     1
 90
        1
176
     1
 90
        2
176
     1
 40
0.6
176
     1
 40
30.0
176
     1
 62
     7
420
 16777215
176
     1
 90
        1
176
     1
 90
        2
176
     1
 62
     7
176
     1
 62
   257
176
     1
 90
        2
176
     1
 90
        1
176
     1
 40
1.0
176
     1
 90
        8
176
     1
 62
   257
176
     1
 40
1.0
176
     1
 90
        1
176
     1
 90
        6
176
     1
 90
        2
176
     1
 62
     7
176
     1
 90
        3
176
     1
 90
        0
176
     1
 90
        0
176
     1
290
     0
176
     1
 90
        5
176
     1
 40
0.0
176
     1
 90
        0
176
     1
290
     0
176
     1
290
     1
176
     1
290
     1
176
     1
290
     0
176
     1
290
     0
176
     1
290
     0
176
     1
290
     0
176
     1
290
     0
176
     1
290
     0
176
     1
 90
       50
176
     1
 40
0.0
176
     1
 40
1.0
176
     1
 90
        0
176
     1
 62
    18
420
        0
176
     1
 90
       50
176
     1
 90
        3
176
     1
 62
     5
420
      255
176
     1
290
     0
176
     1
 90
       50
176
     1
 90
       50
176
     1
 90
       50
176
     1
290
     0
176
     1
 90
       50
176
     1
 62
   256
176
     0
 40
1.0
176
     0
 90
        2
176
     1
  1
strokes_ogs.tif
176
     1
290
     0
176
     1
 40
1.0
176
     1
 40
1.0
176
     1
  0
VISUALSTYLE
  5
3A
102
{ACAD_REACTORS
330
29
102
}
330
29
100
AcDbVisualStyle
  2
Shades of Gray
 70
    23
177
     3
291
     0
 70
    58
 90
        2
176
     1
 90
        2
176
     1
 90
        3
176
     1
 90
        0
176
     1
 40
0.6
176
     1
 40
30.0
176
     1
 62
     7
420
 16777215
176
     1
 90
        2
176
     1
 90
        2
176
     1
 62
     7
176
     1
 62
     7
176
     1
 90
        1
176
     1
 90
        1
176
     1
 40
40.0
176
     1
 90
        8
176
     1
 62
     7
176
     1
 40
1.0
176
     1
 90
        1
176
     1
 90
        6
176
     1
 90
        2
176
     1
 62
     7
176
     1
 90
        3
176
     1
 90
        0
176
     1
 90
        0
176
     1
290
     0
176
     1
 90
        1
176
     1
 40
0.0
176
     1
 90
        0
176
     1
290
     0
176
     1
290
     1
176
     1
290
     1
176
     1
290
     0
176
     1
290
     0
176
     1
290
     0
176
     1
290
     0
176
     1
290
     0
176
     1
290
     0
176
     1
 90
       50
176
     1
 40
0.0
176
     1
 40
1.0
176
     1
 90
        0
176
     1
 62
    18
420
        0
176
     1
 90
       50
176
     1
 90
        3
176
     1
 62
     5
420
      255
176
     1
290
     0
176
     1
 90
       50
176
     1
 90
       50
176
     1
 90
       50
176
     1
290
     0
176
     1
 90
       50
176
     1
 62
   256
176
     0
 40
1.0
176
     0
 90
        2
176
     1
  1
strokes_ogs.tif
176
     1
290
     0
176
     1
 40
1.0
176
     1
 40
1.0
176
     1
  0
VISUALSTYLE
  5
3B
102
{ACAD_REACTORS
330
29
102
}
330
29
100
AcDbVisualStyle
  2
Sketchy
 70
    24
177
     3
291
     0
 70
    58
 90
        1
176
     1
 90
        2
176
     1
 90
        2
176
     1
 90
        0
176
     1
 40
0.6
176
     1
 40
30.0
176
     1
 62
     7
420
 16777215
176
     1
 90
        2
176
     1
 90
        2
176
     1
 62
     7
176
     1
 62
     7
176
     1
 90
        1
176
     1
 90
        1
176
     1
 40
40.0
176
     1
 90
       11
176
     1
 62
     7
176
     1
 40
1.0
176
     1
 90
        1
176
     1
 90
        6
176
     1
 90
        2
176
     1
 62
     7
176
     1
 90
        6
176
     1
 90
        0
176
     1
 90
        0
176
     1
290
     0
176
     1
 90
        1
176
     1
 40
0.0
176
     1
 90
        0
176
     1
290
     0
176
     1
290
     1
176
     1
290
     1
176
     1
290
     0
176
     1
290
     0
176
     1
290
     0
176
     1
290
     0
176
     1
290
     0
176
     1
290
     0
176
     1
 90
       50
176
     1
 40
0.0
176
     1
 40
1.0
176
     1
 90
        0
176
     1
 62
    18
420
        0
176
     1
 90
       50
176
     1
 90
        3
176
     1
 62
     5
420
      255
176
     1
290
     0
176
     1
 90
       50
176
     1
 90
       50
176
     1
 90
       50
176
     1
290
     0
176
     1
 90
       50
176
     1
 62
   256
176
     0
 40
1.0
176
     0
 90
        2
176
     1
  1
strokes_ogs.tif
176
     1
290
     0
176
     1
 40
1.0
176
     1
 40
1.0
176
     1
  0
VISUALSTYLE
  5
36
102
{ACAD_REACTORS
330
29
102
}
330
29
100
AcDbVisualStyle
  2
Thicken
 70
    13
177
     3
291
     1
 70
    58
 90
        2
176
     1
 90
        2
176
     1
 90
        0
176
     1
 90
        0
176
     1
 40
0.6
176
     1
 40
30.0
176
     1
 62
     7
420
 16777215
176
     1
 90
        1
176
     1
 90
        4
176
     1
 62
     7
176
     1
 62
   257
176
     1
 90
        1
176
     1
 90
        1
176
     1
 40
1.0
176
     1
 90
       12
176
     1
 62
     7
176
     1
 40
1.0
176
     1
 90
        1
176
     1
 90
        6
176
     1
 90
        2
176
     1
 62
     7
176
     1
 90
        5
176
     1
 90
        0
176
     1
 90
        0
176
     1
290
     0
176
     1
 90
        1
176
     1
 40
0.0
176
     1
 90
        0
176
     1
290
     0
176
     1
290
     1
176
     1
290
     1
176
     1
290
     0
176
     1
290
     0
176
     1
290
     0
176
     1
290
     0
176
     1
290
     0
176
     1
290
     0
176
     1
 90
       50
176
     1
 40
0.0
176
     1
 40
1.0
176
     1
 90
        0
176
     1
 62
    18
420
        0
176
     1
 90
       50
176
     1
 90
        3
176
     1
 62
     5
420
      255
176
     1
290
     0
176
     1
 90
       50
176
     1
 90
       50
176
     1
 90
       50
176
     1
290
     0
176
     1
 90
       50
176
     1
 62
   256
176
     0
 40
1.0
176
     0
 90
        2
176
     1
  1
strokes_ogs.tif
176
     1
290
     0
176
     1
 40
1.0
176
     1
 40
1.0
176
     1
  0
VISUALSTYLE
  5
30
102
{ACAD_REACTORS
330
29
102
}
330
29
100
AcDbVisualStyle
  2
Wireframe
 70
     5
177
     3
291
     0
 70
    58
 90
        0
176
     1
 90
        2
176
     1
 90
        0
176
     1
 90
        0
176
     1
 40
0.6
176
     1
 40
30.0
176
     1
 62
     7
420
 16777215
176
     1
 90
        1
176
     1
 90
        4
176
     1
 62
     7
176
     1
 62
   257
176
     1
 90
        1
176
     1
 90
        1
176
     1
 40
1.0
176
     1
 90
        0
176
     1
 62
   257
176
     1
 40
1.0
176
     1
 90
        1
176
     1
 90
        6
176
     1
 90
        2
176
     1
 62
     7
176
     1
 90
        3
176
     1
 90
        0
176
     1
 90
        0
176
     1
290
     0
176
     1
 90
        1
176
     1
 40
0.0
176
     1
 90
        0
176
     1
290
     0
176
     1
290
     1
176
     1
290
     1
176
     1
290
     0
176
     1
290
     0
176
     1
290
     0
176
     1
290
     0
176
     1
290
     0
176
     1
290
     0
176
     1
 90
       50
176
     1
 40
0.0
176
     1
 40
1.0
176
     1
 90
        0
176
     1
 62
    18
420
        0
176
     1
 90
       50
176
     1
 90
        3
176
     1
 62
     5
420
      255
176
     1
290
     0
176
     1
 90
       50
176
     1
 90
       50
176
     1
 90
       50
176
     1
290
     0
176
     1
 90
       50
176
     1
 62
   256
176
     0
 40
1.0
176
     0
 90
        2
176
     1
  1
strokes_ogs.tif
176
     1
290
     0
176
     1
 40
1.0
176
     1
 40
1.0
176
     1
  0
VISUALSTYLE
  5
3C
102
{ACAD_REACTORS
330
29
102
}
330
29
100
AcDbVisualStyle
  2
X-Ray
 70
    25
177
     3
291
     0
 70
    58
 90
        2
176
     1
 90
        2
176
     1
 90
        1
176
     1
 90
        1
176
     1
 40
0.5
176
     1
 40
30.0
176
     1
 62
     7
420
 16777215
176
     1
 90
        1
176
     1
 90
        0
176
     1
 62
     7
176
     1
 62
   257
176
     1
 90
        1
176
     1
 90
        1
176
     1
 40
1.0
176
     1
 90
        8
176
     1
 62
     7
176
     1
 40
1.0
176
     1
 90
        1
176
     1
 90
        6
176
     1
 90
        2
176
     1
 62
     7
176
     1
 90
        3
176
     1
 90
        0
176
     1
 90
        0
176
     1
290
     0
176
     1
 90
       13
176
     1
 40
0.0
176
     1
 90
        0
176
     1
290
     0
176
     1
290
     1
176
     1
290
     1
176
     1
290
     0
176
     1
290
     0
176
     1
290
     0
176
     1
290
     0
176
     1
290
     0
176
     1
290
     0
176
     1
 90
       50
176
     1
 40
0.0
176
     1
 40
1.0
176
     1
 90
        0
176
     1
 62
    18
420
        0
176
     1
 90
       50
176
     1
 90
        3
176
     1
 62
     5
420
      255
176
     1
290
     0
176
     1
 90
       50
176
     1
 90
       50
176
     1
 90
       50
176
     1
290
     0
176
     1
 90
       50
176
     1
 62
   256
176
     0
 40
1.0
176
     0
 90
        2
176
     1
  1
strokes_ogs.tif
176
     1
290
     0
176
     1
 40
1.0
176
     1
 40
1.0
176
     1
  0
DICTIONARYVAR
  5
F2
102
{ACAD_REACTORS
330
ED
102
}
330
ED
100
DictionaryVariables
280
     0
  1
1:1
  0
DICTIONARYVAR
  5
EF
102
{ACAD_REACTORS
330
ED
102
}
330
ED
100
DictionaryVariables
280
     0
  1
STANDARD
  0
DICTIONARYVAR
  5
EE
102
{ACAD_REACTORS
330
ED
102
}
330
ED
100
DictionaryVariables
280
     0
  1
STANDARD
  0
DICTIONARYVAR
  5
F0
102
{ACAD_REACTORS
330
ED
102
}
330
ED
100
DictionaryVariables
280
     0
  1
Imperial24
  0
DICTIONARYVAR
  5
F1
102
{ACAD_REACTORS
330
ED
102
}
330
ED
100
DictionaryVariables
280
     0
  1
Imperial24
  0
DICTIONARY
  5
1A
330
19
100
AcDbDictionary
280
     1
281
     1
  3
BUMPTILE
360
1C
  3
DIFFUSETILE
360
1B
  3
OPACITYTILE
360
1F
  3
REFLECTIONTILE
360
1E
  3
REFRACTIONTILE
360
20
  3
SPECULARTILE
360
1D
  0
DICTIONARY
  5
12
330
11
100
AcDbDictionary
280
     1
281
     1
  3
BUMPTILE
360
14
  3
DIFFUSETILE
360
13
  3
OPACITYTILE
360
17
  3
REFLECTIONTILE
360
16
  3
REFRACTIONTILE
360
18
  3
SPECULARTILE
360
15
  0
DICTIONARY
  5
22
330
21
100
AcDbDictionary
280
     1
281
     1
  3
BUMPTILE
360
24
  3
DIFFUSETILE
360
23
  3
OPACITYTILE
360
27
  3
REFLECTIONTILE
360
26
  3
REFRACTIONTILE
360
28
  3
SPECULARTILE
360
25
  0
DICTIONARY
  5
F3
330
65
100
AcDbDictionary
280
     1
281
     1
  3
ACAD_ROUNDTRIP_2008_TABLESTYLE_CELLSTYLEMAP
360
F4
  0
XRECORD
  5
1C
102
{ACAD_REACTORS
330
1A
102
}
330
1A
100
AcDbXrecord
280
     1
270
     1
271
     1
  0
XRECORD
  5
1B
102
{ACAD_REACTORS
330
1A
102
}
330
1A
100
AcDbXrecord
280
     1
270
     1
271
     1
  0
XRECORD
  5
1F
102
{ACAD_REACTORS
330
1A
102
}
330
1A
100
AcDbXrecord
280
     1
270
     1
271
     1
  0
XRECORD
  5
1E
102
{ACAD_REACTORS
330
1A
102
}
330
1A
100
AcDbXrecord
280
     1
270
     1
271
     1
  0
XRECORD
  5
20
102
{ACAD_REACTORS
330
1A
102
}
330
1A
100
AcDbXrecord
280
     1
270
     1
271
     1
  0
XRECORD
  5
1D
102
{ACAD_REACTORS
330
1A
102
}
330
1A
100
AcDbXrecord
280
     1
270
     1
271
     1
  0
XRECORD
  5
14
102
{ACAD_REACTORS
330
12
102
}
330
12
100
AcDbXrecord
280
     1
270
     1
271
     1
  0
XRECORD
  5
13
102
{ACAD_REACTORS
330
12
102
}
330
12
100
AcDbXrecord
280
     1
270
     1
271
     1
  0
XRECORD
  5
17
102
{ACAD_REACTORS
330
12
102
}
330
12
100
AcDbXrecord
280
     1
270
     1
271
     1
  0
XRECORD
  5
16
102
{ACAD_REACTORS
330
12
102
}
330
12
100
AcDbXrecord
280
     1
270
     1
271
     1
  0
XRECORD
  5
18
102
{ACAD_REACTORS
330
12
102
}
330
12
100
AcDbXrecord
280
     1
270
     1
271
     1
  0
XRECORD
  5
15
102
{ACAD_REACTORS
330
12
102
}
330
12
100
AcDbXrecord
280
     1
270
     1
271
     1
  0
XRECORD
  5
24
102
{ACAD_REACTORS
330
22
102
}
330
22
100
AcDbXrecord
280
     1
270
     1
271
     1
  0
XRECORD
  5
23
102
{ACAD_REACTORS
330
22
102
}
330
22
100
AcDbXrecord
280
     1
270
     1
271
     1
  0
XRECORD
  5
27
102
{ACAD_REACTORS
330
22
102
}
330
22
100
AcDbXrecord
280
     1
270
     1
271
     1
  0
XRECORD
  5
26
102
{ACAD_REACTORS
330
22
102
}
330
22
100
AcDbXrecord
280
     1
270
     1
271
     1
  0
XRECORD
  5
28
102
{ACAD_REACTORS
330
22
102
}
330
22
100
AcDbXrecord
280
     1
270
     1
271
     1
  0
XRECORD
  5
25
102
{ACAD_REACTORS
330
22
102
}
330
22
100
AcDbXrecord
280
     1
270
     1
271
     1
  0
CELLSTYLEMAP
  5
F4
102
{ACAD_REACTORS
330
F3
102
}
330
F3
100
AcDbCellStyleMap
 90
        3
300
CELLSTYLE
  1
TABLEFORMAT_BEGIN
 90
        5
170
     1
 91
        0
 92
    32768
 62
   257
 93
        1
300
CONTENTFORMAT
  1
CONTENTFORMAT_BEGIN
 90
        0
 91
        0
 92
      512
 93
        0
300

 40
0.0
140
1.0
 94
        5
 62
     0
340
55
144
0.25
309
CONTENTFORMAT_END
171
     0
 94
        0
309
TABLEFORMAT_END
  1
CELLSTYLE_BEGIN
 90
        1
 91
        1
300
_TITLE
309
CELLSTYLE_END
300
CELLSTYLE
  1
TABLEFORMAT_BEGIN
 90
        5
170
     1
 91
        0
 92
        0
 62
   257
 93
        1
300
CONTENTFORMAT
  1
CONTENTFORMAT_BEGIN
 90
        0
 91
        0
 92
      512
 93
        0
300

 40
0.0
140
1.0
 94
        5
 62
     0
340
55
144
0.18
309
CONTENTFORMAT_END
171
     0
 94
        0
309
TABLEFORMAT_END
  1
CELLSTYLE_BEGIN
 90
        2
 91
        1
300
_HEADER
309
CELLSTYLE_END
300
CELLSTYLE
  1
TABLEFORMAT_BEGIN
 90
        5
170
     1
 91
        0
 92
        0
 62
   257
 93
        1
300
CONTENTFORMAT
  1
CONTENTFORMAT_BEGIN
 90
        0
 91
        0
 92
      512
 93
        0
300

 40
0.0
140
1.0
 94
        2
 62
     0
340
55
144
0.18
309
CONTENTFORMAT_END
171
     0
 94
        0
309
TABLEFORMAT_END
  1
CELLSTYLE_BEGIN
 90
        3
 91
        2
300
_DATA
309
CELLSTYLE_END
  0
ENDSEC
  0
EOF
